Oops, an error
Loading. Please wait.

Devils Dance Floor bass

version 2
version 2

Whole song

Interactive

666 views 3 this week
no commentswrite comment
1 2 3 4 5
3 more votes to show rating
add to favorites
×
Save as Personal and add changes to this tab that will be seen only by you. Learn more ›
×
You can save this tab as Personal to edit and correct it or add notes. All changes will be seen only by you. Learn more »
launch autoscroll
font size
0
reset
guitar tuner
edit
Autoscroll
slow
fast
+/-
esc
set tempo
stop
Author
Difficulty
D Standard tuning
Note that this song is played between the 2nd and 5th fret, don't be confused by the
close placement of 2s and 0s on the 'fill' section!

Main riff/Chorus (0:19)
F-------------------------------------------------------------------|
C-------------------------------------------------------------------|
G--2--242-225-550-002-242-225-0-2----2--242-225-550-002-242-225-0-2-|
D-------------------------------------------------------------------|

No bass from 0:33 until...

Bridge (0:43)
F---------------|
C---------------|
G-22222-222-245-|
D---------------|

Repeat Main riff/Chorus

No bass from 1:99 until...

Repeat Bridge (1:09)

No bass from 1:12 until...

Repeat Bridge (1:22)

Repeat Main riff/Chorus

Post-chorus
F----------------|
C----------------|
G-2--242-225-0-2-|
D----------------|

Verse (1:39)
F----------------------------------------------------|
C------------2-2222-------------2--------------2-2222|
G-4--454-4444------0-2-4--454-44-04-4--454-4444------|
D----------------------------------------------------|

|--------------------|
|---------------2----|
|-0-2-4--454-44--2-4-|
|--------------------|

No bass from 1:56 until...

Fill Part A (2:23)
F------------------------------------------------------|
C------------------------------------------------------|
G-2--2--5--4--2--2--5--4--2--2--5--4--2--2--045-4--20--|
D--2--2--2--2--2--2--2--2--2--2--2--2--2--2------------| << x3 !!!

Fill Part B (3:03)
F-------------------------------------------------------------|
C-------------------------------------------------------------|
G-2--2--2--2--2--2--2--2--02--2--2--2--02-2-2-2-2-222-245-----|
D--2--2--2--2--2--2--2--02--2--2--2--02-----------------------|

Repeat Main riff/Chorus (x4), then...

Outro (1:39)
F----------------|
C----------------|
G-2--242-225-0-2-|
D----------------|

F--------------------------------|
C--------------------------------|
G-2--242-225~---0~---2~-------2~-|
D--------------------------------|

End with another 2, let ring briefly and then hit it again [stop the note almost as soon 
as you hit it!]

            
            
Suggest correction
Creating personal tab
Creating personal tab
You can edit any tab online and save it as your Personal.

You can edit, replace or remove any tab part or add personal notes – all changes will be seen only by you.

Personal tabs can be accessed anytime from any device, even offline.
Learn more »
Give kudos to tab author, rate the tab!
1 2 3 4 5
comments
print report bad tab
guest
You may want to rate the tab now too:
select rating
Wanna post a correction for this tab? Suggest correction