Oops, an error
Loading. Please wait.

Devils Dance Floor Tab

version 3
version 3

Whole song

Interactive

18,985 views 21 this week
3 commentsread comments
1 2 3 4 5
x 9
add to favorites
launch autoscroll
font size
0
reset
how to read this tab
guitar tuner
×
Best way to learn
"Devils Dance Floor"
Autoscroll
slow
fast
+/-
esc
set tempo
stop
Author
Difficulty
[Intro]
e|--0--5--5--2--3--0--2--0--------------------|
B|--------------------------------0-----------|
G|--------------------------2--2-----2--0--0--| (x4)
D|--------------------------------------------|
A|--------------------------------------------|
E|--------------------------------------------|

Am Am C Em(3x) Am Am C Em Am

[Verse 1]
e|--0--5--5--2--3--0--2--0--------------------|
B|--------------------------------0-----------|
G|--------------------------2--2-----2--0--0--| (x3)
D|--------------------------------------------|
A|--------------------------------------------|
E|--------------------------------------------|
      Am                            Em
We’re all just dancers       on the devils dancefloor!

[Chorus]
     Am                          C             Em
Well swing a little more, little more o'er the merry-o
Am                            C           Em
Swing a little more, a little more next to me
Am                          C             Em
Swing a little more, little more o'er the merry-o
Am                          C       Em    Am
Swing a little more, on the Devil's Dance Floor

[Verse 2]
e|--0--5--5--2--3--0--2--0--------------------|
B|--------------------------------0-----------|
G|--------------------------2--2-----2--0--0--| (x3)
D|--------------------------------------------|
A|--------------------------------------------|
E|--------------------------------------------|
   Am                                Em
So pull yourself together girl  and have a little fun

[Verse 3]
e|--0--5--5--2--3--0--2--0--------------------|
B|--------------------------------0-----------|
G|--------------------------2--2-----2--0--0--| (x3)
D|--------------------------------------------|
A|--------------------------------------------|
E|--------------------------------------------|
               Am                                          Em
She said come with me now     on the devils dancefloor

[Chorus]
     Am                          C             Em
Well swing a little more, little more o'er the merry-o
Am                            C           Em
Swing a little more, a little more next to me
Am                          C             Em
Swing a little more, little more o'er the merry-o
Am                          C       Em    Am
Swing a little more, on the Devil's Dance Floor

[Instrumental] 
Bm Bm D F#m(3x) Bm Bm D F#m Bm

(there’s actually a tin whistle solo now, but you can play it on the guitar to ;) )

e|--0--5--5--2--3--0--2--0--------------------|
B|--------------------------------0-----------|
G|--------------------------2--2-----2--0--0--| (x4)
D|--------------------------------------------|
A|--------------------------------------------|
E|--------------------------------------------|

(And then 2 times this)

e|--0-----------------------------------------|
B|-----------0--------0--1--3--0--------------|
G|-----2--2-----2--2--------------2--0--------|
D|--------------------------------------------|
A|--------------------------------------------|
E|--------------------------------------------|

e|--0-----------------------------------------|
B|-----------0--------0--1--3--0--------------|
G|-----2--2-----2--2--------------------------|
D|--------------------------------------------|
A|--------------------------------------------|
E|--------------------------------------------|

e|--0-----------------------------------------|
B|-----------0--------0--1--3--0--------------|
G|-----2--2-----2--2--------------2--0--------|
D|--------------------------------------------|
A|--------------------------------------------|
E|--------------------------------------------|

e|--0-----------------------------------------|
B|-----------0--------0--1------0-------------|
G|-----2--2-----2--2---------2-----2----------|
D|--------------------------------------------|
A|--------------------------------------------|
E|--------------------------------------------|

(Then play this while the soft singing)

e|--0-----------------------------------------|
B|-----------0--------0--1--3--0--------------|
G|-----2--2-----2--2--------------2--0--------|
D|--------------------------------------------|
A|--------------------------------------------|
E|--------------------------------------------|

e|--0-----------------------------------------|
B|-----------0--------0--1--3--0--------------|
G|-----2--2-----2--2--------------------------|
D|--------------------------------------------|
A|--------------------------------------------|
E|--------------------------------------------|

e|--0-----------------------------------------|
B|-----------0--------0--1--3--0--------------|
G|-----2--2-----2--2--------------2--0--------|
D|--------------------------------------------|
A|--------------------------------------------|
E|--------------------------------------------|
Am                                                    C              Em       Am
SWING A LITTLE MORE! ON THE DEVIL’S DANCE FLOOR!

(Then play this again)

Am Am C Em(3x) Am Am C Em Am

[Verse 4]
e|--0--5--5--2--3--0--2--0--------------------|
B|--------------------------------0-----------|
G|--------------------------2--2-----2--0--0--| (x3)
D|--------------------------------------------|
A|--------------------------------------------|
E|--------------------------------------------|

     Am                                    Em
This bleedin' hearts cryin'   cause there's no way out

[Chorus] 
(2x)
     Am                          C             Em
Well swing a little more, little more o'er the merry-o
Am                            C           Em
Swing a little more, a little more next to me
Am                          C             Em
Swing a little more, little more o'er the merry-o
Am                          C       Em    Am
Swing a little more, on the Devil's Dance Floor

(After the last time the chorus play this)
Am                          C       Em    Am
Swing a little more, on the Devil's Dance Floor
Am                          C          Em       Am
Swing a little more, on the Devil's    Dance     Floor

[Ending]
Am
Suggest correction
comments
print report bad tab
3 comments total.
+2 reply
Guitar Empire 51 Apr 25, 2008 09:28 AM

This is incredibly accurate. This is the best tab that I have ever seen for this song. Excellent work!

0 reply
Soxpast22 20 Oct 30, 2008 05:52 PM

This is great, the riff is perfect

+1 reply
miguel.cabogalg 10 Jul 06, 2014 03:49 PM

Not bad at all, but I'd add some more effects on the main riff, and the chorus should be like:

E--0-----------------------------------------|
B-----------0--------0--1--3--1--0-----------|
G-----2--2-----2--2-----------------2--0-----|

E--0-----------------------------------------|
B-----------0--------0--1--3--1--0-----------|
G-----2--2-----2--2--------------------------|

E--0-----------------------------------------|
B-----------0--------0--1--3--1--0-----------|
G-----2--2-----2--2-----------------2--0-----|

(just two notes of difference, I know, but I really think it's more accurate that way)

guest
You may want to rate the tab now too:
select rating
Wanna post a correction for this tab? Suggest correction