Oops, an error
Loading. Please wait.

Drunken Lullabies Bass Tab

version 3
version 3

Whole song

Interactive

9,723 views 9 this week
3 commentsread comments
1 2 3 4 5
x 3
add to favorites
launch autoscroll
font size
0
reset
guitar tuner
Autoscroll
slow
fast
+/-
esc
set tempo
stop
Help us to improve Ultimate-Guitar.com Take our survey!
×
There are a lot of different tabs that i have seen for this song. 
I'm not sure if this is actually right, but this is what i hear when i
listen to the song.

Intro
G|-----------------------------------------------------------------|
D|-----------------------------------------------------------------|
A|---------3-3-------------5-5-5-5---------3-3---------5-5---------|
E|-3-3-3-3-----3-3-3-3-3-3---------3-3-3-3-----3-3-3-3-----3-3-3-3-|

Verse
G|-----------------------------------------|
D|-----------------------------------------|
A|--5-5-5-0-2-2-----0-3-3-3-2-3-4-7-7-5-5--|
E|-3-3-3-3-0-0-0-2-3---3-3---------7-7-5-5-|

G|-----------------------------------------|
D|-----------------------------------------|
A|--5-5-5-0-2-2-----0-3-3-3-2-3-4-77775555-|
E|-3-3-3-3-0-0-0-2-3---3-3-----------------|

Chorus pt1
G|--------------------|
D|--------------------|
A|-3-3---5-5-3-3-5-5--|
E|--3-3-3-3---3-3-5-5-|

Chorus pt2 (...cause we find ourselves...)
G|--------------------------|
D|--------------------------|
A|----3-3-2-2-------5-5-5-5-|
E|-3-3-------0-0-3-3---3-3--|

Bridge (2's are eighth notes before it goes back to 3)
G|---------------------------------------------------------|
D|---------------------------------------------------------|
A|-3-3-5-5-5---23-3-5-5-5---23-3-5-5---3-3-23-3-5-5--5-----|
E|--------3-3-3--------3-3-3--------3-3------------3---3-3-|

2nd Chorus
G|-------------------|
D|-----2-2-----------|
A|-3-3--2-2-3-3-5-5--|
E|--3-3------3-3-5-5-|

  pt 2
G|--------------------------|
D|--------------------------|
A|----3-3-2-2-------5-5-5-5-|
E|-3-3-------0-0-3-3---3-3--|

ending (last 5 notes are eighth notes)
G|-------------------------------------|
D|----------------------------------45-|
A|---3322---3-3-7-7----3322----55-35---|
E|-33----003-3---7-7-33----0033--3-----|



Order:
Mandolin in begining (rest)
Intro
Verse
Chorus
Intro
Verse
chorus
Bridge
Chorus
mandolin and violin solo (rest)
intro
2nd chorus
verse
chorus
ending
Suggest correction
Give kudos to tab author, rate the tab!
1 2 3 4 5
comments
print report bad tab
3 comments total.
0 reply
el_matse 10 Jan 05, 2010 10:58 AM

great tab!
though i like to play eight notes in the intro

0 reply
Flexo 367 Nov 24, 2014 11:33 AM, edited at 11:34 am

I think the first line of the verse goes like this|------------------||------------------||---5---5---5------||-3---3---3---3-8\-|
instead of|-----------------||-----------------||---5---5---5---0-||-3---3---3---3---|

0 reply
Flexo 367 Nov 24, 2014 11:35 AM

I think the first line of the verse goes like this
|------------------|
|------------------|
|---5---5---5------|
|-3---3---3---3-8\-|

instead of
|-----------------|
|-----------------|
|---5---5---5---0-|
|-3---3---3---3---|

guest
You may want to rate the tab now too:
select rating
Wanna post a correction for this tab? Suggest correction