Oops, an error
Loading. Please wait.

Float Bass Tab

version 1
version 1

Whole song

Interactive

7,302 views 1 this week
no commentswrite comment
1 2 3 4 5
excellent!
x 5
add to favorites
launch autoscroll
font size
0
reset
guitar tuner
Tab Pro tools
  • play this tab
  • loop segment
  • change instrument
  • show fretboard
  • metronome
×
Best way to learn
"Float"
Autoscroll
slow
fast
+/-
esc
set tempo
stop
Contributor
#----------------------------------PLEASE NOTE---------------------------------#
#This file is the author's own work and represents their interpretation of the #
#song. You may only use this file for private study, scholarship, or research. #
#------------------------------------------------------------------------------#

Artist: Flogging Molly
Song: Float
Album: Float (2008)

okay, so here we go. the basslines in this song are quite easy to play, you'll get it 
a time. ;-)

For the intro, the 1st Verse and the 1st chorus the bass does NOTHING.

The bass starts playing in the
2nd Verse ("Sick and tired of what to say"..)

|--2-------0--|-2-------0--|---------5--|-2--------|
|-------------|------------|-0----------|----------|  play 2x
|-------------|------------|------------|----------|
|-------------|------------|------------|----------|


2nd Chorus ("Ah but don't, no don't sink the boat"..)

|-5--------|----------|-----------|----------|
|----------|-5--------|-----------|--7-------|
|----------|----------|--5--------|----------|
|----------|----------|-----------|----------|
|
|
|-5--------|----------|-----------|----------|
|----------|-5--------|-----------|----------|
|----------|----------|--5-let ring----------|
|----------|----------|-----------|----------|


Interlude

|-----------------|----------------|----------------|-----------------|
|------2-------2--|------------/2--|-0-------0--/2--|-----2-----------|
|--0-------0------|-3-------3------|-----0----------|-0-------0-------|
|-----------------|-----3----------|----------------|-------------3---|
|
|
|-----------------|----------------|----------------|-----------------|
|------2-------2--|------------/2--|-0-------0--/2--|-----2-----------|
|--0-------0------|-3-------3------|-----0----------|-0-------0-------|
|-----------------|-----3----------|----------------|-------------3---|


3rd Verse

|----------------|----------------|----------------|----------------|
|-----2----------|-----2----------|-0-------0------|-----2----------|
|-0-------0------|-0-------0---3--|-----0-------3--|-0-------0------|
|-------------3--|----------------|----------------|-------------3--|
|
|
|----------------|----------------|----------------|----------------|
|-----2----------|-----2----------|-0-------0------|-----2----------|
|-0-------0------|-0-------0---3--|-----0-------3--|-0-------0------|
|-------------3--|----------------|----------------|-------------3--|


Bridge ("It's all you can"..)

|------------|------------|------------|------------|----------|
|------------|------------|------------|------------|----------|
|------------|------------|---------3--|-5----------|-0--------|
|-1-------3--|-5-------3--|-1----------|------------|----------|


Interlude

|-----------------|----------------|----------------|-----------------|
|------2-------2--|------------/2--|-0-------0--/2--|-----2-----------|
|--0-------0------|-3-------3------|-----0----------|-0-------0-------|
|-----------------|-----3----------|----------------|-------------3---|
|
|
|-----------------|----------------|----------------|----------------|
|------2------/2--|------------/2--|-0-------0--/2--|----------------|
|--0-------0------|-3-------3------|-----0----------|-0-------0------|
|-----------------|-----3----------|----------------|-----0-------3--|


4th Verse

|-------------|-------------|-------------|-------------|
|-------------|-------------|-0-----0-----|-------------|
|-0-----0-----|-0-----0-----|----0-----3--|-0-----0-----|
|----0-----3--|----0-----3--|-------------|----0-----3--|
|
|
|-------------|-------------|-------------|-------------|
|-------------|-------------|-0-----0-----|-------------|
|-0-----0-----|-0-----0-----|----0-----3--|-0-----0--2--|
|----0-----3--|----0-----3--|-------------|----0--------|


Last Chorus

|----------------|----------------|----------------|----------------|
|------------/2--|-----0----------|-0-------0--/2--|----------------|
|-3-------3------|-------------3--|-----0----------|-0-------0---2--|
|-----3----------|-3-------3------|----------------|-----0----------|
|
|
|----------------|----------------|----------------|----------------|
|------------/2--|-----0----------|-0-------0------|-----2-------2--|
|-3-------3------|-------------3--|-----0-------2--|-0-------0------|
|-----3----------|-3-------3------|----------------|----------------|
|
|
|----------------|-----------------|----------------|-----------------|
|----------------|-----0-----------|-0-------0------|-0-------0-0-/2--|
|-3-------3---0--|-------------2-3-|-----0-------0--|-----0-----------|
|-----3----------|-3-------3-------|----------------|-----------------|


Instrumental Part

|----------------|----------------|----------------|----------------|
|-----2------/2--|------------/2--|-0-------0--/2--|-----2----------|
|-0-------0------|-3-------3------|-----0----------|-0-------0------|
|----------------|-----3----------|----------------|-------------3--|
|
|
|----------------|----------------|----------------|----------------|
|-----2------/2--|------------/2--|-0-------0--/2--|----------------|
|-0-------0------|-3-------3------|-----0----------|-0-------0------|
|----------------|-----3----------|----------------|-----0-------3--|


Outro ("A ripe old age"..)

|----------------|----------------|----------------|----------------|
|----------------|----------------|-0-------0------|----------------|
|-0-------0------|-3-------3------|-----0----------|-0-------0------|
|-----0-------0--|-----3-------0--|-------------3--|-----0-------3--|
|
|
|----------------|----------------|----------------|----------------|
|-----2------/2--|------------/2--|-0-------0--/2--|----------------|
|-0-------0------|-3-------3------|-----0----------|-0-------0-0----|
|----------------|-----3----------|----------------|-----0-------3--|
|
|
|----------------|----------------|----------------|----------------|
|-----2------/2--|------------/2--|-0-------0--/2--|----------------|
|-0-------0------|-3-------3------|-----0----------|-0-------0-0----|
|----------------|-----3----------|----------------|-----0-------3--|
|
|
|----------------|----------------|----------------|----------------|
|-----2------/2--|------------/2--|-0-------0--/2--|----------------|
|-0-------0------|-3-------3------|-----0----------|-0-------0------|
|----------------|-----3----------|----------------|-----0-------3--|
|
|
|----------------|----------------|----------------|----------------|
|-----2------/2--|------------/2--|-0-------0-0/2--|----------------|
|-0-------0------|-3-------3------|-----0----------|-0-------0-0----|
|----------------|-----3----------|----------------|-----0--0----3--|
|
|
|----------------|----------------|----------------|----------------|
|------------/2--|------------/2--|-0-------0-0/2--|----------------|
|-0-------0-0----|-3-------3-3----|-----0--0-------|-0-------0------|
|-----0--0-------|-----3--3-------|----------------|-----0-------3--|
|
|
|----------------|----------------|----------------|----------------||
|------------/2--|------------/2--|-0-------0-0/2--|----------------||
|-0-------0-0----|-3-------3-3----|-----0--0-------|-0~~~~~~~~~-----||
|-----0--0-------|-----3--3-------|----------------|----------------||
                                  |
                                  |start getting slower from here on.

so, that's it!

if you have questions or suggestions, write me!
please rate and leave comments!
comments
print report bad tab
I want to post or [tab]
guest
You may want to rate the tab now too:
select rating
Please do not post tabs as comments. Select "correction" instead!