Oops, an error
Loading. Please wait.

If I Ever Leave This World Alive Bass Tab

version 1
version 1

Whole song

Interactive

8,040 views 3 this week
no commentswrite comment
1 2 3 4 5
x 4
add to favorites
launch autoscroll
font size
0
reset
guitar tuner
Autoscroll
slow
fast
+/-
esc
set tempo
stop
Help us to improve Ultimate-Guitar.com Take our survey!
×
Author
Hello!!


min. 02:21

   you can call it 'a'                              " " " " 'b'
g |------------------------------------------------|-------------------------|
D |------------------------------------------------|-------------------------|
A |5-----5-----5-----5-----2-----2--------2--3--4--|5-----5-------0--2--3--4-|
E |---5-----5-----5-----5-----2-----2--3-----------|---5----0-2-3------------|

   'b'                        'a'
g |--------------------------|-----------------------------------------------|
D |--------------------------|-----------------------------------------------|
A |5-----5-------0--2--3--4--|5-----5-----5-----5-----2-----2--------2--3--4-|
E |---5----0-2-3-------------|---5-----5-----5-----5-----2-----2--3----------|

   'b'                        'b'
g |--------------------------|-------------------------|
D |--------------------------|-------------------------|
A |5-----5-------0--2--3--4--|5-----5-------0--2--3--4-|
E |---5----0-2-3-------------|---5----0-2-3------------|

this means= {a+b+b, a+b+b}. Simple


min. 02:57

   'c'                        'c'
g |--------------------------|--------------------------|
D |--------------------------|--------------------------|
A |5-----5-----5-----5-0-2-4-|5-----5-----5-----5-0-2-4-|
E |---5-----5-----5----------|---5-----5-----5----------|

   'c'                        'd'
g |--------------------------|------------------0-2-2----|
D |--------------------------|--------------2-4----------|
A |5-----5-----5-----5-0-2-4-|5-----5-----5-----------5~-|
E |---5-----5-----5----------|---5-----5-----------------|

{c+c+c+d}

- doubts or something?
- ESP_bender-a.C.-@hotmail.com !!!
Suggest correction
comments
print report bad tab
guest
You may want to rate the tab now too:
select rating
Wanna post a correction for this tab? Suggest correction