Oops, an error
Loading. Please wait.

Son Never Shines On Closed Doors Tab

1,044 views 3 this week
no commentswrite comment
1 2 3 4 5
please rate
add to favorites
launch autoscroll
font size
0
reset
how to read this tab
guitar tuner
Tab Pro tools
  • play this tab
  • loop segment
  • change instrument
  • show fretboard
  • metronome
×
Best way to learn
"Son Never Shines On Closed Doors"
Autoscroll
slow
fast
+/-
esc
set tempo
stop
Difficulty
novice
Son Never Shines (On Closed Doors) by Flogging Molly

  Intro/Bridge

   G  D  G  C                     G   D
E|-7--5x-7x-12--12-12--12-12--12x-10x-8x-7--7-7--7-7-|
B|-8--7x-8x-13--13-13--13-13--13x-12x-8x-8--8-8--8-8-|
G|-7--7x-7x-12--12-12--12-12--12x-12x-9x-7--7-7--7-7-|
D|---------------------------------------------------|
A|---------------------------------------------------|
E|---------------------------------------------------|

E|-7x-5x-7x-5--5-5--5-5--5x-7x-5x-7--7-7--7-7--|
B|-8x-7x-8x-7--7-7--7-7--7x-8x-7x-8--8-8--8-8--|
G|-7x-7x-7x-7--7-7--7-7--7x-7x-7x-7--7-7--7-7--|
D|---------------------------------------------|
A|---------------------------------------------|
E|---------------------------------------------|

E|-7x-5x-7x-12--12-12--12-12--12x-10x-8x-7--7-7--7-7-|
B|-8x-7x-8x-13--13-13--13-13--13x-12x-8x-8--8-8--8-8-|
G|-7x-7x-7x-12--12-12--12-12--12x-12x-9x-7--7-7--7-7-|
D|---------------------------------------------------|
A|---------------------------------------------------|
E|---------------------------------------------------|

E|-7x-5x-7x-5--5-5--5-5--5x-7x-5x-7--|---------|
B|-8x-7x-8x-7--7-7--7-7--7x-8x-7x-8--|---------|
G|-7x-7x-7x-7--7-7--7-7--7x-7x-7x-7--|---------|
D|-----------------------------------|-0-5-0-5-|
A|-----------------------------------|---------|
E|-----------------------------------|---------|
                                        X4

   G  D  C 
E|-7--5--8-|
B|-8--7--8-| 
G|-7--7--9-|
D|---------|  
A|---------|
E|---------|  

Verse:
G               C          G   G
I saw her there fade from afar
G                 C
Her hair gray charcoal
        G             D    D
Takes a drag from her tar.
  C            D
I kissed her a smile,
        G              C    C
but her blood red shot eyes
          C         D    D           G 
Said "the son never shines on closed doors.

//Just hit G once then do the D|-0-5-0-5-| thing

Verse:

//This time keep paying G but after move into a thing like the intro.
//When you play through the first half of the intro and get to the D 
//Chord again just strum on it a few times then move into the chords 
//on the third line of the Chorus. The second line has where the D 
//chords are at

Chorus:

She said the son never shines on closed doors
                               D      D
I open to find only hurricanes blow.
C        D            G               C    C
Takes me away, to the green fields of May,
            C         D      D         G
Because the son never shines on closed doors. 

Verse

Chorus

//Do the intro thing for a bit

       D          C        G
And we all go the same way home, 
        D          C        G
yeah we all go the same way home. 

//Repeat For a While
comments
We did not receive enough feedback on this tab! Please rate:
print report bad tab
1 2 3 4 5
I want to post or [tab]
guest
You may want to rate the tab now too:
select rating
Please do not post tabs as comments. Select "correction" instead!