Oops, an error
Loading. Please wait.

Swagger Tab

version 1
version 1

Intro

Whole song

Interactive

10,460 views 6 this week
4 commentsread comments
1 2 3 4 5
excellent!
x 8
add to favorites
launch autoscroll
font size
0
reset
how to read this tab
guitar tuner
Autoscroll
slow
fast
+/-
esc
set tempo
stop
Help us to improve Ultimate-Guitar.com Take our survey!
×
Author
------------------------------------------------------------------------------- 
                        SWAGGER - Flogging Molly 
-------------------------------------------------------------------------------
By: Satan Clause 

e|------------------------------------------------------------| 
B|------------------------------------------------------------| 
G|----------------------------7-77-6---------7-77-6-----------| 
D|--------------------7-----7--------9-7----7--------9-7------| 
A|--0--2--4---555-7-9-----------------------------------------| 
E|------------------------------------------------------------| 

e|------------------| 
B|------------------| 
G|------------------| 
D|--7-9-7-5---------| 
A|---------9-7------| 
E|------------------| repeat 

-------------------------------------------------------------------------------
Suggest correction
comments
print report bad tab
4 comments total. Showing first comments.
0 reply
Ozonebaby42 10 wrote on June 6 2003, 12:00 am

A more economical way to play this is:

E|-------------------------------------|
B|--------------------3-3-3-2-0--------|
G|----------------2-2-----------2------D|-------0-0-0-2-4---------------------|
A|-0-2-4-------------------------------|
E|-------------------------------------|

E|-------------------------------------|
B|---3-3-3-2-0-------------------------|
G|--2----------2-2-4-2-0---------------|
D|-----------------------4-2---4-------|
A|-------------------------------------|
E|-------------------------------------|
then repeat over again

0 reply
KrazyIvan 10 wrote on January 27 2004, 12:00 am

yeah thats how i play it. simpler this way

0 reply
gibsonrocker917 37 wrote on December 16 2005, 05:51 pm

good tab

i lik how u put it - i don't like playing it the b & g

guest
You may want to rate the tab now too:
select rating
Please do not post tabs as comments. Select "correction" instead!