Oops, an error
Loading. Please wait.

Swagger Tab

version 1
version 1

Solo

Whole song

Interactive

1,549 views 1 this week
1 commentread comment
1 2 3 4 5
worth learning
x 4
add to favorites
launch autoscroll
font size
0
reset
how to read this tab
guitar tuner
Tab Pro tools
  • play this tab
  • loop segment
  • change instrument
  • show fretboard
  • metronome
×
Best way to learn
"Swagger"
Autoscroll
slow
fast
+/-
esc
set tempo
stop
SWAGGER - Flogging Molly 

Corrected by Petruchio

e|------------------------------------------------------------| 
B|----------------------------2-22-1---------2-22-1-----------| 
G|--------------------2-----2--------4-2----2--------4-2------| 
D|------------000-2-4-----------------------------------------| 
A|--0--2--4---------------------------------------------------| 
E|------------------------------------------------------------| 

e|------------------| 
B|------------------| 
G|--2-4-2-0---------| 
D|---------4-2------| 
A|------------------| 
E|------------------| repeat
comments
print report bad tab
1 comment total.
-1 reply
live2fight wrote on July 31 2006, 06:34 pm

wrong mid. section

right way:
------------------------------
---3-33-3-2------3-33-3-2-----
--2--------4-2--2---------4-2-
------------------------------
------------------------------
------------------------------

I want to post or [tab]
guest
You may want to rate the tab now too:
select rating
Please do not post tabs as comments. Select "correction" instead!