Oops, an error
Loading. Please wait.

Swagger Tab

version 3
version 3

Intro

Solo

Whole song

Interactive

948 views 1 this week
no commentswrite comment
1 2 3 4 5
please rate
add to favorites
launch autoscroll
font size
0
reset
how to read this tab
guitar tuner
Tab Pro tools
  • play this tab
  • loop segment
  • change instrument
  • show fretboard
  • metronome
Autoscroll
slow
fast
+/-
esc
set tempo
stop
Difficulty
intermediate
Swagger (Expanded Chord Version) - Flogging Molly
By: Chadwick


*This is basically taken from another tab someone did but I wanted
to expand the chords from just letters for people learning to play
that haven't completely learned their chords yet. Have fun and I
hope you enjoy playing this great song :).*


e |---------------------------------------------------------------|
B |-----------------------3-33-2---------3-33-2-------------------|
G |-------------------2-2---------4-2--2--------4-2-2-4-2-0-------|
D |--------0-00-0-2-4---------------------------------------4-2---|
A |--0-2-4--------------------------------------------------------|
E |---------------------------------------------------------------|

    (B Chord)                                (D Chord)
e |--2----------------------------------------2-------------------|
B |--4----------------------------------------3-------------------|
G |--4----------------------------------------2-------------------|
D |--4----------------------------------------0-------------------|
A |-------------------------------------------0-------------------|
E |---------------------------------------------------------------|
    ^ Dont't know where I'm going!
    (B Chord)                                (D Chord)      (A Chord)
e |--2----------------------------------------2--------------0----|
B |--4----------------------------------------3--------------2----|
G |--4----------------------------------------2--------------2----|
D |--4----------------------------------------0--------------2----|
A |-------------------------------------------0--------------0----|
E |----------------------------------------------------------0----|
    ^ Dont't know where I'm going! AH!

e |---------------------------------------------------------------|
B |---------------------------------------------------------------|
G |------2-2-4-42-2-4-42-4-2-0------------------------------------|
D |--0-2-----------------------4-2--------------------------------|
A |---------------------------------------------------------------|
E |---------------------------------------------------------------|


e |---------------------------------------------------------------|
B |-----------------------3-33-2---------3-33-2-------------------|
G |-------------------2-2---------4-2--2--------4-2-2-4-2-0-------|
D |--------0-00-0-2-4---------------------------------------4-2---|
A |--0-2-4--------------------------------------------------------|
E |---------------------------------------------------------------|


e |---------------------------------------------------------------|
B |-----------------------3-33-2---------3-33-2-------------------|
G |-------------------2-2---------4-2--2--------4-2-2-4-2-0-------|
D |--------0-00-0-2-4---------------------------------------4-2---|
A |--0-2-4--------------------------------------------------------|
E |---------------------------------------------------------------|

    (B Chord)      (A Chord)          (B Chord)       (A Chord)
e |--2--------------0------------------2---------------0----------|
B |--4--------------2------------------4---------------2----------|
G |--4--------------2------------------4---------------2----------|
D |--4--------------2------------------4---------------2----------|
A |-----------------0----------------------------------0----------|
E |-----------------0----------------------------------0----------|


e |---------------------------------------------------------------|
B |---------------------------------------------------------------|
G |------2-2-4-42-2-4-42-4-2-0------------------------------------|
D |--0-2-----------------------4-2--------------------------------|
A |---------------------------------------------------------------|
E |---------------------------------------------------------------|

    (B Chord)                                (D Chord)
e |--2----------------------------------------2-------------------|
B |--4----------------------------------------3-------------------|
G |--4----------------------------------------2-------------------|
D |--4----------------------------------------0-------------------|
A |-------------------------------------------0-------------------|
E |---------------------------------------------------------------|
    ^ Dont't know where I'm going!
    (B Chord)                                (D Chord)      (A Chord)
e |--2----------------------------------------2--------------0----|
B |--4----------------------------------------3--------------2----|
G |--4----------------------------------------2--------------2----|
D |--4----------------------------------------0--------------2----|
A |-------------------------------------------0--------------0----|
E |----------------------------------------------------------0----|
    ^ Dont't know where I'm going! AH!

e |---------------------------------------------------------------|
B |---------------------------------------------------------------|
G |------2-2-4-42-2-4-42-4-2-0------------------------------------|
D |--0-2-----------------------4-2--------------------------------|
A |---------------------------------------------------------------|
E |---------------------------------------------------------------|

    (B Chord)     (G Chord)        (B Chord)       (G Chord)
e |--2-------------3----------------2---------------3-------------|
B |--4-------------2----------------4---------------2-------------|
G |--4-------------0----------------4---------------0-------------|
D |--4-------------0----------------4---------------0-------------|
A |----------------0--------------------------------0-------------|
E |----------------3--------------------------------3-------------|


    (B Chord)     (G Chord)        (B Chord)       (G Chord)
e |--2-------------3----------------2---------------3-------------|
B |--4-------------2----------------4---------------2-------------|
G |--4-------------0----------------4---------------0-------------|
D |--4-------------0----------------4---------------0-------------|
A |----------------0--------------------------------0-------------|
E |----------------3--------------------------------3-------------|


e |---------------------------------------------------------------|
B |-----------------------3-33-2---------3-33-2-------------------|
G |-------------------2-2---------4-2--2--------4-2-2-4-2-0-------|
D |--------0-00-0-2-4---------------------------------------4-2---|
A |--0-2-4--------------------------------------------------------|
E |---------------------------------------------------------------|


e |---------------------------------------------------------------|
B |-----------------------3-33-2---------3-33-2-------------------|
G |-------------------2-2---------4-2--2--------4-2-2-4-2-0-------|
D |--------0-00-0-2-4---------------------------------------4-2---|
A |--0-2-4--------------------------------------------------------|
E |---------------------------------------------------------------|

         (D Chord)
e |-------2-------------------------------------------------------|
B |-------3-------------------------------------------------------|
G |-------2-------------------------------------------------------|
D |-------0-------------------------------------------------------|
A |-------0-------------------------------------------------------|
E |---------------------------------------------------------------|
comments
We did not receive enough feedback on this tab! Please rate:
print report bad tab
1 2 3 4 5
I want to post or [tab]
guest
You may want to rate the tab now too:
select rating
Please do not post tabs as comments. Select "correction" instead!