Oops, an error
Loading. Please wait.

The Likes Of You Again Tab

5,963 views 9 this week
no commentswrite comment
1 2 3 4 5
accurate
x 3
add to favorites
launch autoscroll
font size
0
reset
how to read this tab
guitar tuner
Autoscroll
slow
fast
+/-
esc
set tempo
stop
Help us to improve Ultimate-Guitar.com Take our survey!
×
Contributor
---------------------------------------------------------------------------
                        The Likes of you again
---------------------------------------------------------------------------
By: Satan Clause

Intro: 
"Here's to you, a song for my daddio" 

Em 
e:-0-000-0-000-0-000-0-0-: 
b:-0-000-0-000-0-000-0-0-: 
g:-0-000-0-000-0-000-0-0-: 
D:-2-222-2-222-2-222-2-2-: 
A:-2-222-2-222-2-222-2-2-: 
E:-0-000-0-000-0-000-0-0-: 

Em G D A 
e:-0-000--3-333--2-222--0-000-: 
b:-0-000--0-000--3-333--2-222-: 
g:-0-000--0-000--2-222--2-222-: Play 4x 
D:-2-222--0-000--0-000--2-222-: 
A:-2-222--2-222---------0-000-: 
E:-0-000--3-333---------------: 


e:-0----0----0----0-: 
b:--2----2----2---2-: 
g:---2----2----2--2-: 
D:----2----2----2-2-: 
A:----------------0-: 
E:------------------: 

"1, 2, 3, 4" 

D G A D 
e:-2222--3333--2222--0000--2222--3333-3-0-2-: 
b:-3333--0000--3333--2222--3333--0000-0-2-3-: 
g:-2222--0000--2222--2222--2222--0000-0-2-2-: THE RIFF - you'll hear this through out 
D:-0000--0000--0000--2222--0000--0000-0-2-0-: the song, so figure out where 
A:-------2222--------0000--------2222-2-0---: it goes 
E:-------3333--------------------3333-3-----: 

Prechorus 
"Ringing in the new year..." 

Bm D Bm A 
e:-2222-2222--2222-2222--2222-2222--0000-0000-: 
b:-3333-3333--3333-3333--3333-3333--2222-2222-: 
g:-4444-4444--2222-2222--4444-4444--2222-2222-: 
D:-4444-4444--0000-0000--4444-4444--2222-2222-: 
A:-2222-2222-------------2222-2222--0000-0000-: 
E:--------------------------------------------: 

Chorus 
"We'll never see the likes of you again..." 

G A 
e:-3333-3333--0000-0000-: 
b:-0000-0000--2222-2222-: 
g:-0000-0000--2222-2222-: 
D:-0000-0000--2222-2222-: 
A:-2222-2222--0000-0000-: 
E:-3333-3333------------: 

Bridge 
"There must be more to life..." 

Bm D G A 
e:-2---2---3---0---: 
b:-3---3---0---2---: 
g:-4---2---0---2---: 
D:-4---0---0---2---: 
A:-2-------2---0---: 
E:---------3-------: 

"So he disappeared, into his final beer..." 
Just strum those last chords fast 

Blah, blah, blah, end 

==============================================
comments
We did not receive enough feedback on this tab! Please rate:
print report bad tab
1 2 3 4 5
I want to post or [tab]
guest
You may want to rate the tab now too:
select rating
Please do not post tabs as comments. Select "correction" instead!