Oops, an error
Loading. Please wait.

Whats Left Of The Flag tab

version 1
version 1

Whole song

Interactive

10,570 views 3 this week
2 commentsread comments
1 2 3 4 5
2 more votes to show rating
add to favorites
×
Save as Personal and add changes to this tab that will be seen only by you. Learn more ›
×
You can save this tab as Personal to edit and correct it or add notes. All changes will be seen only by you. Learn more »
launch autoscroll
font size
0
reset
how to read this tab
guitar tuner
edit
Autoscroll
slow
fast
+/-
esc
set tempo
stop
#----------------------------------PLEASE NOTE---------------------------------#
#This file is the author's own work and represents their interpretation of the #
#song. You may only use this file for private study, scholarship, or research. #
#------------------------------------------------------------------------------#

WHAT'S LEFT OF THE FLAG
As recorded by Flogging Molly
(From the 2002 Album DRUNKEN LULLABIES)

Transcribed by Robbie Annese
	

Words by Dave King Music by Flogging Molly

G
3 2 0 0 0 3
	
C
x 3 2 0 1 0
	
Em
0 2 2 0 0 0
	
D
x x 0 2 3 2

A
x 0 2 2 2 0
	
F#
2 4 4 3 2 2
	
F#m
2 4 4 2 2 2
	
E
0 2 2 1 0 0

Gtr I (E A D G B E) - 'Dave King'
Gtr II (G D A E) - 'Bridget Regan'
Gtr III (E A D G B E) - 'Matt Hensley'
Gtr IV (E A D G B E) - 'Dennis Casey'

 First Verse/Chorus
  Q=160
  G                   G                   C              G
 3/4
  Gtr I
  Q.     E   E   E     Q.    E   E   E    Q.   E E   E   Q.      E   E   E
|-3------3---3---3--|--3-----3---3---3--|-0----0-0---0-|-3-------3---3---3--|
|-0------0---0---0--|--0-----0---0---0--|-1----1-1---1-|-0-------0---0---0--|
|-0------0---0---0--|--0-----0---0---0--|-0----0-0---0-|-0-------0---0---0--|
|-0------0---0---0--|--0-----0---0---0--|-2----2-2---2-|-0-------0---0---0--|
|-2-----(2)-(2)-(2)-|--2----(2)-(2)-(2)-|-3----3-3---3-|-2------(2)-(2)-(2)-|
|-3-----(3)-(3)-(3)-|--3----(3)-(3)-(3)-|--------------|-3------(3)-(3)-(3)-|
|
| Gtr II
|    ~~~~~~~~~~~~~~~~~~~~~~~~~~~          ~~                ~~
| E  H          +E    +Q.   +E   E   E    H      S S E   E  Q.       E   E
|-------------------|-------------------|--------------|--------------------|
|-------------------|------------3---5--|-3------3-5-3-|-0--2--------2---0--|
|-4--5----------(5)-|-(5)---(5)---------|--------------|--------------------|
|-------------------|-------------------|--------------|--------------------|


  G                  G
  Q.    E   E   E     Q.     E   E   E
|-3-----3---3---3--|--3------3---3---3--|
|-0-----0---0---0--|--0------0---0---0--|
|-0-----0---0---0--|--0------0---0---0--|
|-0-----0---0---0--|--0------0---0---0--|
|-2----(2)-(2)-(2)-|--2-----(2)-(2)-(2)-|
|-3----(3)-(3)-(3)-|--3-----(3)-(3)-(3)-|
|
| ~~            ~~~~~~~~~    ~~~~~~~~~~~~
| H         E   E    +Q   E  Q.
|------------------|--------------------|
|-----------0---2--|-(2)--0-------------|
|-5----------------|---------5----------|
|------------------|--------------------|


  Em                 Em
  Q.    E   E   E     Q.    E   E   E
|-0-----0---0---0--|--0-----0---0---0---|
|-0-----0---0---0--|--0-----0---0---0---|
|-0-----0---0---0--|--0-----0---0---0---|
|-2-----2---2---2--|--2-----2---2---2---|
|-2----(2)-(2)-(2)-|--2----(2)-(2)-(2)--|
|-0----(0)-(0)-(0)-|--0----(0)-(0)-(0)--|
|
|~~~~~~~~~~~~~~~~~~~~~~~~
| H.                 +H         Q
|------------------|--------------------|
|------------------|--------------------|
|-2----------------|-(2)--------0-------|
|------------------|--------------------|


  G                   G                   C              G
  Q.     E   E   E     Q.    E   E   E    Q.   E E   E   Q.      E   E   E
|-3------3---3---3--|--3-----3---3---3--|-0----0-0---0-|-3-------3---3---3--|
|-0------0---0---0--|--0-----0---0---0--|-1----1-1---1-|-0-------0---0---0--|
|-0------0---0---0--|--0-----0---0---0--|-0----0-0---0-|-0-------0---0---0--|
|-0------0---0---0--|--0-----0---0---0--|-2----2-2---2-|-0-------0---0---0--|
|-2-----(2)-(2)-(2)-|--2----(2)-(2)-(2)-|-3----3-3---3-|-2------(2)-(2)-(2)-|
|-3-----(3)-(3)-(3)-|--3----(3)-(3)-(3)-|--------------|-3------(3)-(3)-(3)-|
|
|    ~~~~~~~~~~~~~~~~~~~~~~~~~~~          ~~                ~~
| E  H          +E    +Q.   +E   E   E    H      S S E   E  Q.       E   E
|-------------------|-------------------|--------------|--------------------|
|-------------------|------------3---5--|-3------3-5-3-|-0--2--------2---0--|
|-4--5----------(5)-|-(5)---(5)---------|--------------|--------------------|
|-------------------|-------------------|--------------|--------------------|


  G                  D            G                  G
  Q.    E   E   E    Q.   E E E   Q.    E   E   E     Q.    E   E   E
|-3-----3---3---3--|-2----2-2-2-|-3-----3---3---3--|--3-----3---3---3---|
|-0-----0---0---0--|-3----3-3-3-|-0-----0---0---0--|--0-----0---0---0---|
|-0-----0---0---0--|-2----2-2-2-|-0-----0---0---0--|--0-----0---0---0---|
|-0-----0---0---0--|-0----0-0-0-|-0-----0---0---0--|--0-----0---0---0---|
|-2----(2)-(2)-(2)-|------------|-2----(2)-(2)-(2)-|--2----(2)-(2)-(2)--|
|-3----(3)-(3)-(3)-|------------|-3----(3)-(3)-(3)-|--3----(3)-(3)-(3)--|
|
| ~~                              ~~~~~~~~~~~~~~~~~~~~~~~
| H         E   E    H      Q     H.                 +H         E   E
|------------------|------------|------------------|--------------------|
|-----------0---2--|-0----------|------------------|------------3---5---|
|-5----------------|--------5---|-5----------------|-(5)----------------|
|------------------|------------|------------------|--------------------|


  C            C              G                  G
  Q.   E E E   Q.   E E   E   Q.    E   E   E    Q.    E   E     E
|-0----0-0-0-|-0----0-0---0-|-3-----3---3---3--|-3-----3---3-----3--|
|-1----1-1-1-|-1----1-1---1-|-0-----0---0---0--|-0-----0---0-----0--|
|-0----0-0-0-|-0----0-0---0-|-0-----0---0---0--|-0-----0---0-----0--|
|-2----2-2-2-|-2----2-2---2-|-0-----0---0---0--|-0-----0---0-----0--|
|-3----3-3-3-|-3----3-3---3-|-2----(2)-(2)-(2)-|-2----(2)-(2)---(2)-|
|------------|--------------|-3----(3)-(3)-(3)-|-3----(3)-(3)---(3)-|
|
| ~~~~~~~~~~~~~~~~            ~~~~~~~~~~~~~~~~~~~~~~
| H.           H      S S E   H.                 H         S  S  E
|------------|--------------|------------------|--------------------|
|-7----------|-7------5-7-5-|-2----------------|-2---------0--2--0--|
|------------|--------------|------------------|--------------------|
|------------|--------------|------------------|--------------------|


  Em                   Em                 D            D
    Q.    E   E   E    Q.    E   E   E    Q.   E E E   Q.   E E E
|---0-----0---0---0--|-0-----0---0---0--|-2----2-2-2-|-2----2-2-2-|
|---0-----0---0---0--|-0-----0---0---0--|-3----3-3-3-|-3----3-3-3-|
|---0-----0---0---0--|-0-----0---0---0--|-2----2-2-2-|-2----2-2-2-|
|---2-----2---2---2--|-2-----2---2---2--|-0----0-0-0-|-0----0-0-0-|
|---2----(2)-(2)-(2)-|-2----(2)-(2)-(2)-|------------|------------|
|---0----(0)-(0)-(0)-|-0----(0)-(0)-(0)-|------------|------------|
|
|   ~~~~~~~~~~~~~~~~~~~~~~~~~~~~~~~~~~~~~~~~~
| a H         Q        H.                 Q.   E E E   Q.   E E E
|--------------------|------------------|------------|------------|
|--------------------|------------------|------------|------------|
|-4-5---------4------|-2----------------|-4----5-4-2-|-0----2-4-0-|
|--------------------|------------------|------------|------------|


  G                  G                  C              G
  Q.    E   E   E    Q.    E   E   E    Q.   E E   E   Q.    E   E   E
|-3-----3---3---3--|-3-----3---3---3--|-0----0-0---0-|-3-----3---3---3--|
|-0-----0---0---0--|-0-----0---0---0--|-1----1-1---1-|-0-----0---0---0--|
|-0-----0---0---0--|-0-----0---0---0--|-0----0-0---0-|-0-----0---0---0--|
|-0-----0---0---0--|-0-----0---0---0--|-2----2-2---2-|-0-----0---0---0--|
|-2----(2)-(2)-(2)-|-2----(2)-(2)-(2)-|-3----3-3---3-|-2----(2)-(2)-(2)-|
|-3----(3)-(3)-(3)-|-3----(3)-(3)-(3)-|--------------|-3----(3)-(3)-(3)-|
|
| ~~                 ~~                 ~~             ~~
| H         E   E    H         E   E    H      S S E   H         E   E
|------------------|------------------|--------------|------------------|
|-----------0---2--|-----------0---2--|-7------5-7-5-|-2---------2---0--|
|-5----------------|-5----------------|--------------|------------------|
|------------------|------------------|--------------|------------------|


                                                     Q=170
  G                  D            G                  G
  Q.    E   E   E    Q.   E E E   Q.    E   E   E    q  H
|-3-----3---3---3--|-2----2-2-2-|-3-----3---3---3--|-3-------|
|-0-----0---0---0--|-3----3-3-3-|-0-----0---0---0--|-0-------|
|-0-----0---0---0--|-2----2-2-2-|-0-----0---0---0--|-0-------|
|-0-----0---0---0--|-0----0-0-0-|-0-----0---0---0--|-0-------|
|-2----(2)-(2)-(2)-|------------|-2----(2)-(2)-(2)-|-2-------|
|-3----(3)-(3)-(3)-|------------|-3----(3)-(3)-(3)-|-3-------|
|
| ~~                 ~~~~~~~~~~~~~~~~
| H         E   E    H      Q     H         E   E    q  H
|------------------|------------|------------------|---------|
|-----------0---2--|-0----------|-----------0---2--|---------|
|-5----------------|--------5---|-5----------------|-5-------|
|------------------|------------|------------------|---------|


 Tempo Up, Band Joins In
 4/4
                                   Gtr III
  W          W          W          H.      Q
|----------|----------|----------|-------------|
|----------|----------|----------|-8-------8---|
|----------|----------|----------|-9-------9---|
|----------|----------|----------|-9-------9---|
|----------|----------|----------|-7-------7---|
|----------|----------|----------|-------------|


                            >
   H         +H            +W
|-10--------(10)--------|-(10)-----------------|
|-12--------(12)--------|-(12)-----------------|
|-12--------(12)--------|-(12)-----------------|
|-12--------(12)--------|-(12)-----------------|
|-10--------(10)--------|-(10)-----------------|
|-----------------------|----------------------|
|
| Gtr IV
|  S S Q.     S  S Q.       S  S Q.   S S Q.
|--3-3-3------3--3-3----|---3--3-3----3-3-3----|
|--3-3-3------3--3-3----|---5--5-5----3-3-3----|
|--4-4-4------4--4-4----|---5--5-5----4-4-4----|
|--5-5-5------5--5-5----|---5--5-5----5-5-5----|
|--5-5-5------5--5-5----|---3--3-3----5-5-5----|
|--3-3-3------3--3-3----|-------------3-3-3----|


  W                   H.          E  E
|-------------------|-------------8-10----|
|-------------------|---------------------|
|-------------------|---------------------|
|-------------------|---------------------|
|-------------------|---------------------|
|-------------------|---------------------|
|
| S S Q.   S S Q.     S  S H.       +E
|-3-3-3----5-5-5----|-3--3-3--------(3)---|
|-3-3-3----7-7-7----|-3--3-3--------(3)---|
|-4-4-4----7-7-7----|-4--4-4--------(4)---|
|-5-5-5----7-7-7----|-5--5-5--------(5)---|
|-5-5-5----5-5-5----|-5--5-5--------(5)---|
|-3-3-3-------------|-3--3-3--------(3)---|


  C                    G
  Gtr I
   W                    W
   |                    |
   /                    /

  Gtr IV
   W                    W
|--------------------|--------------------|
|--------------------|--------------------|
|--5-----------------|--------------------|
|--5-----------------|--5-----------------|
|--3-----------------|--5-----------------|
|--------------------|--3-----------------|
|
| Gtr III
|  Q.    E  Q   E  E    Q.    E  Q   E  E
|-12----10-12--10----|-10----12-10-----10-|
|-----------------12-|--------------12----|
|--------------------|--------------------|
|--------------------|--------------------|
|--------------------|--------------------|
|--------------------|--------------------|


  Em                D
   W                 W
   |                 |
   /                 /

   W                 W
|-----------------|---------------------|
|-----------------|---------------------|
|-----------------|--7------------------|
|--2--------------|--7------------------|
|--2--------------|--5------------------|
|--0--------------|---------------------|
|
|  Q   Q   Q   Q     Q.    E  E E  E  E
|-12--14--15------|-10----12-10-8-------|
|-------------12--|---------------12-10-|
|-----------------|---------------------|
|-----------------|---------------------|
|-----------------|---------------------|
|-----------------|---------------------|


  G                               C             G
   E E  S S  S S  E E  S S  S S    E E  S S S S  E E  S S  S S
   | |  | |  | |  | |  | |  | |    | |  | | | |  | |  | |  | |
   / /  / /  / /  / /  / /  / /    / /  / / / /  / /  / /  / /

   E Q       E    E Q       E      E Q      E    E Q       E
|-------------------------------|------------------------------|
|-------------------------------|------------------------------|
|-------------------------------|--5-5------5------------------|
|--5-5-------5----5-5-------5---|--5-5------5----5-5-------5---|
|--5-5-------5----5-5-------5---|--3-3------3----5-5-------5---|
|--3-3-------3----3-3-------3---|----------------3-3-------3---|
|
|  Q    E    E    Q    E    E      Q    Q        Q    E    E
|-------------------------------|-12---12-------10-------------|
|------10---12--------10---12---|--------------------12---10---|
|-12-------------12-------------|------------------------------|
|-------------------------------|------------------------------|
|-------------------------------|------------------------------|
|-------------------------------|------------------------------|
|
| Gtr II
|  W                               W
|-------------------------------|------------------------------|
|-------------------------------|------------------------------|
|-------------------------------|------------------------------|
|-------------------------------|------------------------------|


  G              D                G
   E E  S S  S S  E  E S S  S S    E  E S S S S q   Q
   | |  | |  | |  |  | | |  | |    |  | | | | | |
   / /  / /  / /  /  / / /  / /    /  / / / / / /

   E Q       E    E  Q      E      E  Q     E   q   Q
|-------------------------------|-------------------------|
|-------------------------------|-------------------------|
|-----------------7--7------7---|-------------------------|
|--5-5-------5----7--7------7---|--5--5-----5---5---------|
|--5-5-------5----5--5------5---|--5--5-----5---5---------|
|--3-3-------3------------------|--3--3-----3---3---------|
|
|  Q    E    E    Q.        E      H            Q   E  E
|----------------10-------------|-------------------------|
|------10---12-------------10---|------------------12-10--|
|-12----------------------------|-12----------------------|
|-------------------------------|-------------------------|
|-------------------------------|-------------------------|
|-------------------------------|-------------------------|
|
|  W                               H.               E  E
|-------------------------------|-------------------------|
|-------------------------------|-------------------2--0--|
|-------------------------------|-------------------------|
|-------------------------------|-------------------------|


   Verse
    G                               C             G
     E E  S S  S S  E E  S S  S S    E E  S S S S  E E  S S  S S
     | |  | |  | |  | |  | |  | |    | |  | | | |  | |  | |  | |
     / /  / /  / /  / /  / /  / /    / /  / / / /  / /  / /  / /

     E E  S S  S S  E E  S S  S S    E E  S S S S  E E  S S  S S
||--------------------------------|------------------------------|
||o-------------------------------|------------------------------|
||--------------------------------|--5-5--5-5-5-5----------------|
||---5-5--5-5--5-5--5-5--5-5--5-5-|--5-5--5-5-5-5--5-5--5-5--5-5-|
||o--5-5--5-5--5-5--5-5--5-5--5-5-|--3-3--3-3-3-3--5-5--5-5--5-5-|
||---3-3--3-3--3-3--3-3--3-3--3-3-|----------------3-3--3-3--3-3-|
|
|    Q    E    E    Q    E    E      Q    Q        Q    E    E
||--------------------------------|-12---12-------10-------------|
||o------10---12--------10---12---|--------------------12---10---|
||--12-------------12-------------|------------------------------|
||--------------------------------|------------------------------|
||o-------------------------------|------------------------------|
||--------------------------------|------------------------------|
|
|    ~~             ~~               ~~~~~~~~~~~~~~~~
|    Q    E    E    Q    E    E      Q    Q        Q    E    E
||--------------------------------|------------------------------|
||o-------0----2---------0----2---|--7----7--------5----2----0---|
||o--5--------------5-------------|------------------------------|
||--------------------------------|------------------------------|


  G                              Em
   E E  S S  S S  E E  S S S S    E  E S S S S E E S S S S
   | |  | |  | |  | |  | | | |    |  | | | | | | | | | | |
   / /  / /  / /  / /  / / / /    /  / / / / / / / / / / /

   E E  S S  S S  E E  S S S S    E  E S S S S E E S S S S
|------------------------------|------------------------------|
|------------------------------|------------------------------|
|------------------------------|------------------------------|
|--5-5--5-5--5-5--5-5--5-5-5-5-|--2--2-2-2-2-2-2-2-2-2-2-2----|
|--5-5--5-5--5-5--5-5--5-5-5-5-|--2--2-2-2-2-2-2-2-2-2-2-2----|
|--3-3--3-3--3-3--3-3--3-3-3-3-|--0--0-0-0-0-0-0-0-0-0-0-0----|
|
|  Q    E    E    Q    Q          H.               Q
|------------------------------|------------------------------|
|------10---12---10------------|------------------------------|
|-12------------------12-------|--9----------------7----------|
|------------------------------|------------------------------|
|------------------------------|------------------------------|
|------------------------------|------------------------------|
|
|  ~~                  ~~~~~~~~~~~~~~
|  Q    E    E    Q    Q          H.               S S E
|------------------------------|------------------------------|
|-------0----2----0------------|------------------------------|
|--5-------------------5-------|-/2----------------4-2-0------|
|------------------------------|------------------------------|


  G                               C             G
   E E  S S  S S  E E  S S  S S    E E  S S S S  E E  S S  S S
   | |  | |  | |  | |  | |  | |    | |  | | | |  | |  | |  | |
   / /  / /  / /  / /  / /  / /    / /  / / / /  / /  / /  / /

   E E  S S  S S  E E  S S  S S    E E  S S S S  E E  S S  S S
|-------------------------------|------------------------------|
|-------------------------------|------------------------------|
|-------------------------------|--5-5--5-5-5-5----------------|
|--5-5--5-5--5-5--5-5--5-5--5-5-|--5-5--5-5-5-5--5-5--5-5--5-5-|
|--5-5--5-5--5-5--5-5--5-5--5-5-|--3-3--3-3-3-3--5-5--5-5--5-5-|
|--3-3--3-3--3-3--3-3--3-3--3-3-|----------------3-3--3-3--3-3-|
|
|  Q    E    E    Q    E    E      Q    Q        Q    E    E
|-------------------------------|-12---12-------10-------------|
|------10---12--------10---12---|--------------------12---10---|
|-12-------------12-------------|------------------------------|
|-------------------------------|------------------------------|
|-------------------------------|------------------------------|
|-------------------------------|------------------------------|
|
|  ~~             ~~               ~~~~~~~~~~~~~~~~
|  Q    E    E    Q    E    E      Q    Q        Q    E    E
|-------------------------------|------------------------------|
|-------0----2---------0----2---|--7----7--------5----2----0---|
|--5--------------5-------------|------------------------------|
|-------------------------------|------------------------------|


                                 1.,2.                            3.
  G              D                G                               G
   E E  S S  S S  E  E S S  S S    E  E S S S S E E  S S  S S      E  E S S S S E E S S  S S
   | |  | |  | |  |  | | |  | |    |  | | | | | | |  | |  | |      |  | | | | | | | | |  | |
   / /  / /  / /  /  / / /  / /    /  / / / / / / /  / /  / /      /  / / / / / / / / /  / /

   E E  S S  S S  E  E S S  S S    E  E S S S S E E  S S  S S  3x  E  E S S S S E E S S  S S
|-------------------------------|------------------------------||-----------------------------|
|-------------------------------|-----------------------------o||-----------------------------|
|-----------------7--7-7-7--7-7-|------------------------------||-----------------------------|
|--5-5--5-5--5-5--7--7-7-7--7-7-|--5--5-5-5-5-5-5-5--5-5--5-5--||--5--5-5-5-5-5-5-5-5-5--5-5--|
|--5-5--5-5--5-5--5--5-5-5--5-5-|--5--5-5-5-5-5-5-5--5-5--5-5-o||--5--5-5-5-5-5-5-5-5-5--5-5--|
|--3-3--3-3--3-3----------------|--3--3-3-3-3-3-3-3--3-3--3-3--||--3--3-3-3-3-3-3-3-3-3--3-3--|
|
|  Q    E    E    Q.        E      H.                E    E    3x  H.               E    E
|-------------------------------|------------------------------||-------------------8---10----|
|------10---12---10-------------|-------------------12---10---o||-----------------------------|
|-12-----------------------12---|-12---------------------------||-12--------------------------|
|-------------------------------|------------------------------||-----------------------------|
|-------------------------------|-----------------------------o||-----------------------------|
|-------------------------------|------------------------------||-----------------------------|
|
|  ~~                       ~~~~~~~~~~                             ~~~
|  Q    E    E    Q.        E      H.                E    E    3x  H.               E    E
|-------------------------------|------------------------------||-----------------------------|
|-------0----2----0-------------|--------------------2----0---o||-------------------3----5----|
|--5------------------------5---|--5--------------------------o||--5--------------------------|
|-------------------------------|------------------------------||-----------------------------|


 Chorus
  C                               G
   E  E S S  S S  E E  S S  S S    E  E S S  S S  E E  S S  S S
   |  | | |  | |  | |  | |  | |    |  | | |  | |  | |  | |  | |
   /  / / /  / /  / /  / /  / /    /  / / /  / /  / /  / /  / /

   E  E S S  S S  E E  S S  S S    E  E S S  S S  E E  S S  S S
|-------------------------------|-------------------------------|
|-------------------------------|-------------------------------|
|--5--5-5-5--5-5--5-5--5-5--5-5-|-------------------------------|
|--5--5-5-5--5-5--5-5--5-5--5-5-|--5--5-5-5--5-5--5-5--5-5--5-5-|
|--3--3-3-3--3-3--3-3--3-3--3-3-|--5--5-5-5--5-5--5-5--5-5--5-5-|
|-------------------------------|--3--3-3-3--3-3--3-3--3-3--3-3-|
|
|  Q.        E    Q    E    E      Q.        E    Q    E    E
|-12--------10---12---10--------|-10--------12---10--------10---|
|--------------------------12---|---------------------12--------|
|-------------------------------|-------------------------------|
|-------------------------------|-------------------------------|
|-------------------------------|-------------------------------|
|-------------------------------|-------------------------------|
|
|  Q.        E    Q    S S  E      Q.        E    Q    Q
|-------------------------------|-------------------------------|
|--7---------5----7----5-7--5---|--2---------5----2----0--------|
|-------------------------------|-------------------------------|
|-------------------------------|-------------------------------|


  Em                            D
   E E  S S S S  E E  S S S S    E  E S S  S S  E E  S S  S S
   | |  | | | |  | |  | | | |    |  | | |  | |  | |  | |  | |
   / /  / / / /  / /  / / / /    /  / / /  / /  / /  / /  / /

   E E  S S S S  E E  S S S S    E  E S S  S S  E E  S S  S S
|-----------------------------|----------------------------------|
|-----------------------------|----------------------------------|
|-----------------------------|--7--7-7-7--7-7--7-7--7-7--7-7----|
|--2-2--2-2-2-2--2-2--2-2-2-2-|--7--7-7-7--7-7--7-7--7-7--7-7----|
|--2-2--2-2-2-2--2-2--2-2-2-2-|--5--5-5-5--5-5--5-5--5-5--5-5----|
|--0-0--0-0-0-0--0-0--0-0-0-0-|----------------------------------|
|
|  Q    Q        Q    Q          Q.        E    E E  E    E
|-12---14-------15------------|-10--------12---10-8--------------|
|--------------------12-------|---------------------12---10------|
|-----------------------------|----------------------------------|
|-----------------------------|----------------------------------|
|-----------------------------|----------------------------------|
|-----------------------------|----------------------------------|
|
|  Q    Q        H               Q.        E    Q    E    E
|-----------------------------|----------------------------------|
|-----------------------------|----------------------------------|
|--5----4--------2------------|--4---------2----0----2----4------|
|-----------------------------|----------------------------------|


  G                               C             G
   E E  S S  S S  E E  S S  S S    E E  S S S S  E E  S S  S S
   | |  | |  | |  | |  | |  | |    | |  | | | |  | |  | |  | |
   / /  / /  / /  / /  / /  / /    / /  / / / /  / /  / /  / /

   E E  S S  S S  E E  S S  S S    E E  S S S S  E E  S S  S S
|-------------------------------|------------------------------|
|-------------------------------|------------------------------|
|-------------------------------|--5-5--5-5-5-5----------------|
|--5-5--5-5--5-5--5-5--5-5--5-5-|--5-5--5-5-5-5--5-5--5-5--5-5-|
|--5-5--5-5--5-5--5-5--5-5--5-5-|--3-3--3-3-3-3--5-5--5-5--5-5-|
|--3-3--3-3--3-3--3-3--3-3--3-3-|----------------3-3--3-3--3-3-|
|
|  Q    E    E    Q    E    E      Q    Q        Q    E    E
|-------------------------------|-12---12-------10-------------|
|------10---12--------10---12---|--------------------12---10---|
|-12-------------12-------------|------------------------------|
|-------------------------------|------------------------------|
|-------------------------------|------------------------------|
|-------------------------------|------------------------------|
|
|  ~~             ~~               ~~~~~~~~~~~~~~~~
|  Q    E    E    Q    E    E      Q    Q        Q    E    E
|-------------------------------|------------------------------|
|-------0----2---------0----2---|--7----7--------5----2----0---|
|--5--------------5-------------|------------------------------|
|-------------------------------|------------------------------|


  G              D                G
   E E  S S  S S  E  E S S  S S    E  E S S S S q   Q
   | |  | |  | |  |  | | |  | |    |  | | | | | |
   / /  / /  / /  /  / / /  / /    /  / / / / / /

   E E  S S  S S  E  E S S  S S    E  E S S S S q   Q
|-------------------------------|-------------------------|
|-------------------------------|-------------------------|
|-----------------7--7-7-7--7-7-|-------------------------|
|--5-5--5-5--5-5--7--7-7-7--7-7-|--5--5-5-5-5-5-5---------|
|--5-5--5-5--5-5--5--5-5-5--5-5-|--5--5-5-5-5-5-5---------|
|--3-3--3-3--3-3----------------|--3--3-3-3-3-3-3---------|
|
|  Q    E    E    Q.        E      H.               E  E
|-------------------------------|-------------------------|
|------10---12---10-------------|------------------12-10--|
|-12-----------------------12---|-12----------------------|
|-------------------------------|-------------------------|
|-------------------------------|-------------------------|
|-------------------------------|-------------------------|
|
|  ~~                       ~~~~~~~~~~
|  Q    E    E    Q.        E      H.               E  E
|-------------------------------|-------------------------|
|-------0----2----0-------------|-------------------2--0--|
|--5------------------------5---|--5----------------------|
|-------------------------------|-------------------------|


 Main Theme
  G                               C             G
   E E  S S  S S  E E  S S  S S    E E  S S S S  E E  S S  S S
   | |  | |  | |  | |  | |  | |    | |  | | | |  | |  | |  | |
   / /  / /  / /  / /  / /  / /    / /  / / / /  / /  / /  / /

   E E  S S  S S  E E  S S  S S    E E  S S S S  E E  S S  S S
|-------------------------------|------------------------------|
|-------------------------------|------------------------------|
|-------------------------------|--5-5--5-5-5-5----------------|
|--5-5--5-5--5-5--5-5--5-5--5-5-|--5-5--5-5-5-5--5-5--5-5--5-5-|
|--5-5--5-5--5-5--5-5--5-5--5-5-|--3-3--3-3-3-3--5-5--5-5--5-5-|
|--3-3--3-3--3-3--3-3--3-3--3-3-|----------------3-3--3-3--3-3-|
|
|  Q    E    E    Q    E    E      Q    Q        Q    E    E
|-------------------------------|-12---12-------10-------------|
|------10---12--------10---12---|--------------------12---10---|
|-12-------------12-------------|------------------------------|
|-------------------------------|------------------------------|
|-------------------------------|------------------------------|
|-------------------------------|------------------------------|
|
|  ~~             ~~               ~~~~~~~~~~~~~~~~
|  Q    E    E    Q    E    E      Q    Q        Q    E    E
|-------------------------------|------------------------------|
|-------0----2---------0----2---|--7----7--------5----2----0---|
|--5--------------5-------------|------------------------------|
|-------------------------------|------------------------------|


  G                              Em
   E E  S S  S S  E E  S S S S    E  E S S S S E E S S S S
   | |  | |  | |  | |  | | | |    |  | | | | | | | | | | |
   / /  / /  / /  / /  / / / /    /  / / / / / / / / / / /

   E E  S S  S S  E E  S S S S    E  E S S S S E E S S S S
|------------------------------|------------------------------|
|------------------------------|------------------------------|
|------------------------------|------------------------------|
|--5-5--5-5--5-5--5-5--5-5-5-5-|--2--2-2-2-2-2-2-2-2-2-2-2----|
|--5-5--5-5--5-5--5-5--5-5-5-5-|--2--2-2-2-2-2-2-2-2-2-2-2----|
|--3-3--3-3--3-3--3-3--3-3-3-3-|--0--0-0-0-0-0-0-0-0-0-0-0----|
|
|  Q    E    E    Q    Q          H.               Q
|------------------------------|------------------------------|
|------10---12---10------------|------------------------------|
|-12------------------12-------|--9----------------7----------|
|------------------------------|------------------------------|
|------------------------------|------------------------------|
|------------------------------|------------------------------|
|
|  ~~                  ~~~~~~~~~~~~~~
|  Q    E    E    Q    Q          H.               S S E
|------------------------------|------------------------------|
|-------0----2----0------------|------------------------------|
|--5-------------------5-------|-/2----------------4-2-0------|
|------------------------------|------------------------------|


  G                               C             G
   E E  S S  S S  E E  S S  S S    E E  S S S S  E E  S S  S S
   | |  | |  | |  | |  | |  | |    | |  | | | |  | |  | |  | |
   / /  / /  / /  / /  / /  / /    / /  / / / /  / /  / /  / /

   E E  S S  S S  E E  S S  S S    E E  S S S S  E E  S S  S S
|-------------------------------|------------------------------|
|-------------------------------|------------------------------|
|-------------------------------|--5-5--5-5-5-5----------------|
|--5-5--5-5--5-5--5-5--5-5--5-5-|--5-5--5-5-5-5--5-5--5-5--5-5-|
|--5-5--5-5--5-5--5-5--5-5--5-5-|--3-3--3-3-3-3--5-5--5-5--5-5-|
|--3-3--3-3--3-3--3-3--3-3--3-3-|----------------3-3--3-3--3-3-|
|
|  Q    E    E    Q    E    E      Q    Q        Q    E    E
|-------------------------------|-12---12-------10-------------|
|------10---12--------10---12---|--------------------12---10---|
|-12-------------12-------------|------------------------------|
|-------------------------------|------------------------------|
|-------------------------------|------------------------------|
|-------------------------------|------------------------------|
|
|  ~~             ~~               ~~~~~~~~~~~~~~~~
|  Q    E    E    Q    E    E      Q    Q        Q    E    E
|-------------------------------|------------------------------|
|-------0----2---------0----2---|--7----7--------5----2----0---|
|--5--------------5-------------|------------------------------|
|-------------------------------|------------------------------|


  G              D                G
   E E  S S  S S  E  E S S  S S    E E S S S S E E S S S S
   | |  | |  | |  |  | | |  | |    | | | | | | | | | | | |
   / /  / /  / /  /  / / /  / /    / / / / / / / / / / / /

   E E  S S  S S  E  E S S  S S    E E S S S S E E S S S S
|-------------------------------|-----------------------------|
|-------------------------------|-----------------------------|
|-----------------7--7-7-7--7-7-|-----------------------------|
|--5-5--5-5--5-5--7--7-7-7--7-7-|--5-5-5-5-5-5-5-5-5-5-5-5----|
|--5-5--5-5--5-5--5--5-5-5--5-5-|--5-5-5-5-5-5-5-5-5-5-5-5----|
|--3-3--3-3--3-3----------------|--3-3-3-3-3-3-3-3-3-3-3-3----|
|
|  Q    E    E    Q.        E      W
|-------------------------------|-----------------------------|
|------10---12---10-------------|-----------------------------|
|-12-----------------------12---|-12--------------------------|
|-------------------------------|-----------------------------|
|-------------------------------|-----------------------------|
|-------------------------------|-----------------------------|
|
|  ~~                       ~~~~~~~~~
|  Q    E    E    Q.        E      W
|-------------------------------|-----------------------------|
|-------0----2----0-------------|-----------------------------|
|--5------------------------5---|--5--------------------------|
|-------------------------------|-----------------------------|


 Bridge Part
  Em         Em             D
  W           H     Q  Q     E   E S S S S  E     E S S S S
  |           |     |  |     |   | | | | |  |     | | | | |
  /           /     /  /     /   / / / / /  /     / / / / /

  W           H     Q  Q     E   E S S S S  E     E S S S S
|----------|--------------|---------------------------------|
|----------|--------------|---------------------------------|
|----------|--------------|--7---7-7-7-7-7--7-----7-7-7-7-7-|
|-2--------|--2-----2--2--|--7---7-7-7-7-7--7-----7-7-7-7-7-|
|-2--------|--2-----2--2--|--5---5-5-5-5-5--5-----5-5-5-5-5-|
|-0--------|--0-----0--0--|---------------------------------|
|
| W          +W              H              H
|----------|--------------|---------------------------------|
|-8--------|-(8)----------|-10-------------10---------------|
|-9--------|-(9)----------|-11-------------11---------------|
|-9--------|-(9)----------|-12-------------12---------------|
|-7--------|-(7)----------|-12-------------12---------------|
|----------|--------------|---------------------------------|
|
| ~~~~~~~~~~~~~~~~~~~~~~~      ~~~~~~~~~~~~~~~~~~~
| W           H.       Q     S H              +S  E E   E
|----------|-----------3--|--0-2--------------(2)-2-2---0---|
|----------|--7-----------|---------------------------------|
|-2--------|--------------|---------------------------------|
|----------|--------------|---------------------------------|


  D
   E  E S S S S  E E S S S S
   |  | | | | |  | | | | | |
   /  / / / / /  / / / / / /

   E  E S S S S  E E S S S S
|------------------------------|
|------------------------------|
|--7--7-7-7-7-7--7-7-7-7-7-7---|
|--7--7-7-7-7-7--7-7-7-7-7-7---|
|--5--5-5-5-5-5--5-5-5-5-5-5---|
|------------------------------|
|
|  H             H
|------------------------------|
|-10------------10-------------|
|-11------------11-------------|
|-12------------12-------------|
|-12------------12-------------|
|------------------------------|
|
|  ~~~
|  H.                E   E
|------------------------------|
|--5-----------------2---5-----|
|------------------------------|
|------------------------------|


  Em           Em             D
  W             H     Q  Q     E   E S S S S  E     E S S S S
  |             |     |  |     |   | | | | |  |     | | | | |
  /             /     /  /     /   / / / / /  /     / / / / /

  W             H     Q  Q     E   E S S S S  E     E S S S S
|------------|--------------|---------------------------------|
|------------|--------------|---------------------------------|
|------------|--------------|--7---7-7-7-7-7--7-----7-7-7-7-7-|
|-2----------|--2-----2--2--|--7---7-7-7-7-7--7-----7-7-7-7-7-|
|-2----------|--2-----2--2--|--5---5-5-5-5-5--5-----5-5-5-5-5-|
|-0----------|--0-----0--0--|---------------------------------|
|
| W            +W              H              H
|------------|--------------|---------------------------------|
|-8----------|-(8)----------|-10-------------10---------------|
|-9----------|-(9)----------|-11-------------11---------------|
|-9----------|-(9)----------|-12-------------12---------------|
|-7----------|-(7)----------|-12-------------12---------------|
|------------|--------------|---------------------------------|
|
| ~~            ~~~              ~~~~~~~~~~~~~~~~~~~
| H.      Q     H     Q  Q     S H              +S  E E   E
|------------|-----------3--|--0-2--------------(2)-2-2---0---|
|-7-------5--|--7-----7-----|---------------------------------|
|------------|--------------|---------------------------------|
|------------|--------------|---------------------------------|


  D
   E  E S S S S  E E S S S S
   |  | | | | |  | | | | | |
   /  / / / / /  / / / / / /

   E  E S S S S  E E S S S S
|------------------------------|
|------------------------------|
|--7--7-7-7-7-7--7-7-7-7-7-7---|
|--7--7-7-7-7-7--7-7-7-7-7-7---|
|--5--5-5-5-5-5--5-5-5-5-5-5---|
|------------------------------|
|
|  H             H
|------------------------------|
|-10------------10-------------|
|-11------------11-------------|
|-12------------12-------------|
|-12------------12-------------|
|------------------------------|
|
|  ~~~
|  H.                E   E
|------------------------------|
|--5-----------------2---5-----|
|------------------------------|
|------------------------------|


  C                           G
   E  E S S S S E E S S S S    E   E S S S S E     E S S S S
   |  | | | | | | | | | | |    |   | | | | | |     | | | | |
   /  / / / / / / / / / / /    /   / / / / / /     / / / / /

   E  E S S S S E E S S S S    E   E S S S S E     E S S S S
|---------------------------|--------------------------------|
|---------------------------|--------------------------------|
|--5--5-5-5-5-5-5-5-5-5-5-5-|--------------------------------|
|--5--5-5-5-5-5-5-5-5-5-5-5-|--5---5-5-5-5-5-5-----5-5-5-5-5-|
|--3--3-3-3-3-3-3-3-3-3-3-3-|--5---5-5-5-5-5-5-----5-5-5-5-5-|
|---------------------------|--3---3-3-3-3-3-3-----3-3-3-3-3-|
|
|  W                           W
|---------------------------|--------------------------------|
|--8------------------------|--8-----------------------------|
|--9------------------------|--7-----------------------------|
|-10------------------------|--9-----------------------------|
|-10------------------------|-10-----------------------------|
|---------------------------|--------------------------------|
|
|  ~~~                           ~~~~~~~~~~~~~~~~~~
|  H.               S S E      S H             +E.   S S E
|---------------------------|--------------------------------|
|--3----------------3-5-3---|--0-2-------------(2)---0-2-0---|
|---------------------------|--------------------------------|
|---------------------------|--------------------------------|


  Em                        D
  E E S S S S E E S S S S   E  E S S S S E E  S S  S S
  | | | | | | | | | | | |   |  | | | | | | |  | |  | |
  / / / / / / / / / / / /   /  / / / / / / /  / /  / /

  E E S S S S E E S S S S   E  E S S S S E E  S S  S S
|-------------------------|-----------------------------|
|-------------------------|-----------------------------|
|-------------------------|-7--7-7-7-7-7-7-7--7-7--7-7--|
|-2-2-2-2-2-2-2-2-2-2-2-2-|-7--7-7-7-7-7-7-7--7-7--7-7--|
|-2-2-2-2-2-2-2-2-2-2-2-2-|-5--5-5-5-5-5-5-5--5-5--5-5--|
|-0-0-0-0-0-0-0-0-0-0-0-0-|-----------------------------|
|
| W                         H.                E    E
|-------------------------|-----------------------------|
|-8-----------------------|-7----------------12---10----|
|-9-----------------------|-7---------------------------|
|-9-----------------------|-7---------------------------|
|-7-----------------------|-5---------------------------|
|-------------------------|-----------------------------|
|
|             ~~~~~~~~~~~~~~~~~
| Q   Q       H             Q.       E   Q    E    E
|-------------------------|-----------------------------|
|-------------------------|-----------------------------|
|-5---4-------2-----------|-4--------2---0----2----4----|
|-------------------------|-----------------------------|


  G                               C             G
   E E  S S  S S  E E  S S  S S    E E  S S S S  E E  S S  S S
   | |  | |  | |  | |  | |  | |    | |  | | | |  | |  | |  | |
   / /  / /  / /  / /  / /  / /    / /  / / / /  / /  / /  / /

   E E  S S  S S  E E  S S  S S    E E  S S S S  E E  S S  S S
|-------------------------------|------------------------------|
|-------------------------------|------------------------------|
|-------------------------------|--5-5--5-5-5-5----------------|
|--5-5--5-5--5-5--5-5--5-5--5-5-|--5-5--5-5-5-5--5-5--5-5--5-5-|
|--5-5--5-5--5-5--5-5--5-5--5-5-|--3-3--3-3-3-3--5-5--5-5--5-5-|
|--3-3--3-3--3-3--3-3--3-3--3-3-|----------------3-3--3-3--3-3-|
|
|  Q    E    E    Q    E    E      Q    Q        Q    E    E
|-------------------------------|-12---12-------10-------------|
|------10---12--------10---12---|--------------------12---10---|
|-12-------------12-------------|------------------------------|
|-------------------------------|------------------------------|
|-------------------------------|------------------------------|
|-------------------------------|------------------------------|
|
|  ~~             ~~               ~~~~~~~~~~~~~~~~
|  Q    E    E    Q    E    E      Q    Q        Q    E    E
|-------------------------------|------------------------------|
|-------0----2---------0----2---|--7----7--------5----2----0---|
|--5--------------5-------------|------------------------------|
|-------------------------------|------------------------------|


  G              D                G
   E E  S S  S S  E  E S S  S S    E  E S S S S E E  S S  S S
   | |  | |  | |  |  | | |  | |    |  | | | | | | |  | |  | |
   / /  / /  / /  /  / / /  / /    /  / / / / / / /  / /  / /

   E E  S S  S S  E  E S S  S S    E  E S S S S E E  S S  S S
|-------------------------------|--------------------------------|
|-------------------------------|--------------------------------|
|-----------------7--7-7-7--7-7-|--------------------------------|
|--5-5--5-5--5-5--7--7-7-7--7-7-|--5--5-5-5-5-5-5-5--5-5--5-5----|
|--5-5--5-5--5-5--5--5-5-5--5-5-|--5--5-5-5-5-5-5-5--5-5--5-5----|
|--3-3--3-3--3-3----------------|--3--3-3-3-3-3-3-3--3-3--3-3----|
|
|  Q    E    E    Q.        E      H.                E    E
|-------------------------------|--------------------------------|
|------10---12---10-------------|-------------------14---12------|
|-12-----------------------12---|-12-----------------------------|
|-------------------------------|--------------------------------|
|-------------------------------|--------------------------------|
|-------------------------------|--------------------------------|
|
|  ~~                       ~~~~~~~~~~
|  Q    E    E    Q.        E      H.                E    E
|-------------------------------|--------------------------------|
|-------0----2----0-------------|--------------------4----2------|
|--5------------------------5---|--5-----------------------------|
|-------------------------------|--------------------------------|


 Key Change
  A                               D             A
   E E  S S  S S  E E  S S  S S    E E  S S S S  E E  S S  S S
   | |  | |  | |  | |  | |  | |    | |  | | | |  | |  | |  | |
   / /  / /  / /  / /  / /  / /    / /  / / / /  / /  / /  / /

   E E  S S  S S  E E  S S  S S    E E  S S S S  E E  S S  S S
|-------------------------------|------------------------------|
|-------------------------------|------------------------------|
|-------------------------------|--7-7--7-7-7-7----------------|
|--7-7--7-7--7-7--7-7--7-7--7-7-|--7-7--7-7-7-7--7-7--7-7--7-7-|
|--7-7--7-7--7-7--7-7--7-7--7-7-|--5-5--5-5-5-5--7-7--7-7--7-7-|
|--5-5--5-5--5-5--5-5--5-5--5-5-|----------------5-5--5-5--5-5-|
|
|  Q    E    E    Q    E    E      Q    Q        Q    E    E
|-------------------------------|-14---14-------12-------------|
|------12---14--------12---14---|--------------------14---12---|
|-14-------------14-------------|------------------------------|
|-------------------------------|------------------------------|
|-------------------------------|------------------------------|
|-------------------------------|------------------------------|
|
|  ~~             ~~               ~~~~~~~~~~~~~~~~
|  Q    E    E    Q    E    E      Q    Q        Q    E    E
|-------------------------------|--2----2--------0-------------|
|--0----2----4----0----2----4---|---------------------4----2---|
|-------------------------------|------------------------------|
|-------------------------------|------------------------------|


  A                              F#m
   E E  S S  S S  E E  S S S S    E  E S S S S E E S S S S
   | |  | |  | |  | |  | | | |    |  | | | | | | | | | | |
   / /  / /  / /  / /  / / / /    /  / / / / / / / / / / /

   E E  S S  S S  E E  S S S S    E  E S S S S E E S S S S
|------------------------------|------------------------------|
|------------------------------|------------------------------|
|------------------------------|------------------------------|
|--7-7--7-7--7-7--7-7--7-7-7-7-|--4--4-4-4-4-4-4-4-4-4-4-4----|
|--7-7--7-7--7-7--7-7--7-7-7-7-|--4--4-4-4-4-4-4-4-4-4-4-4----|
|--5-5--5-5--5-5--5-5--5-5-5-5-|--2--2-2-2-2-2-2-2-2-2-2-2----|
|
|  Q    E    E    Q    Q          H.               Q
|------------------------------|------------------------------|
|------12---14---12------------|------------------------------|
|-14------------------14-------|-11----------------9----------|
|------------------------------|------------------------------|
|------------------------------|------------------------------|
|------------------------------|------------------------------|
|
|  ~~                  ~~~~~~~~~~~~~~
|  Q    E    E    Q    Q          H.               S S E
|------------------------------|------------------------------|
|--0----2----4----2----0-------|------------------------------|
|------------------------------|-/4----------------6-4-2------|
|------------------------------|------------------------------|


  A                               D             A
   E E  S S  S S  E E  S S  S S    E E  S S S S  E E  S S  S S
   | |  | |  | |  | |  | |  | |    | |  | | | |  | |  | |  | |
   / /  / /  / /  / /  / /  / /    / /  / / / /  / /  / /  / /

   E E  S S  S S  E E  S S  S S    E E  S S S S  E E  S S  S S
|-------------------------------|------------------------------|
|-------------------------------|------------------------------|
|-------------------------------|--7-7--7-7-7-7----------------|
|--7-7--7-7--7-7--7-7--7-7--7-7-|--7-7--7-7-7-7--7-7--7-7--7-7-|
|--7-7--7-7--7-7--7-7--7-7--7-7-|--5-5--5-5-5-5--7-7--7-7--7-7-|
|--5-5--5-5--5-5--5-5--5-5--5-5-|----------------5-5--5-5--5-5-|
|
|  Q    E    E    Q    E    E      Q    Q        Q    E    E
|-------------------------------|-14---14-------12-------------|
|------12---14--------12---14---|--------------------14---12---|
|-14-------------14-------------|------------------------------|
|-------------------------------|------------------------------|
|-------------------------------|------------------------------|
|-------------------------------|------------------------------|
|
|  ~~             ~~               ~~~~~~~~~~~~~~~~
|  Q    E    E    Q    E    E      Q    Q        Q    E    E
|-------------------------------|--2----2--------0-------------|
|--0----2----4----0----2----4---|---------------------4----2---|
|-------------------------------|------------------------------|
|-------------------------------|------------------------------|


  A              E                A
   E E  S S  S S  E  E S S  S S    E  E S S S S E E  S S  S S
   | |  | |  | |  |  | | |  | |    |  | | | | | | |  | |  | |
   / /  / /  / /  /  / / /  / /    /  / / / / / / /  / /  / /

   E E  S S  S S  E  E S S  S S    E  E S S S S E E  S S  S S
|-------------------------------|--------------------------------|
|-------------------------------|--------------------------------|
|-----------------9--9-9-9--9-9-|--------------------------------|
|--7-7--7-7--7-7--9--9-9-9--9-9-|--7--7-7-7-7-7-7-7--7-7--7-7----|
|--7-7--7-7--7-7--7--7-7-7--7-7-|--7--7-7-7-7-7-7-7--7-7--7-7----|
|--5-5--5-5--5-5----------------|--5--5-5-5-5-5-5-5--5-5--5-5----|
|
|  Q    E    E    Q.        E      H.                E    E
|-------------------------------|-------------------10---12------|
|------12---14---12-------------|--------------------------------|
|-14-----------------------14---|-14-----------------------------|
|-------------------------------|--------------------------------|
|-------------------------------|--------------------------------|
|-------------------------------|--------------------------------|
|
|  ~~                       ~~~~~~~~~~
|  Q    E    E    Q.        E      H.                E    E
|-------------------------------|--------------------------------|
|--0----2----4----2---------0---|--0-----------------5----7------|
|-------------------------------|--------------------------------|
|-------------------------------|--------------------------------|


  D                               A
   E  E S S  S S  E E  S S  S S    E  E S S  S S  E E  S S  S S
   |  | | |  | |  | |  | |  | |    |  | | |  | |  | |  | |  | |
   /  / / /  / /  / /  / /  / /    /  / / /  / /  / /  / /  / /

   E  E S S  S S  E E  S S  S S    E  E S S  S S  E E  S S  S S
|-------------------------------|-------------------------------|
|-------------------------------|-------------------------------|
|--7--7-7-7--7-7--7-7--7-7--7-7-|-------------------------------|
|--7--7-7-7--7-7--7-7--7-7--7-7-|--7--7-7-7--7-7--7-7--7-7--7-7-|
|--5--5-5-5--5-5--5-5--5-5--5-5-|--7--7-7-7--7-7--7-7--7-7--7-7-|
|-------------------------------|--5--5-5-5--5-5--5-5--5-5--5-5-|
|
|  Q.        E    Q    E    E      Q.        E    Q    E    E
|-14--------12---14---12--------|-12--------14---12--------12---|
|--------------------------14---|---------------------14--------|
|-------------------------------|-------------------------------|
|-------------------------------|-------------------------------|
|-------------------------------|-------------------------------|
|-------------------------------|-------------------------------|
|
|  ~~~                             ~~~
|  Q.        E    Q    E    E      Q.        E    Q    E    E
|--2---------0----2----0--------|--0---------2----0---------0---|
|---------------------------4---|----------------------4--------|
|-------------------------------|-------------------------------|
|-------------------------------|-------------------------------|


  F#m                           E
   E E  S S S S  E E  S S S S    q q  S  S S  S  S  S  S S
   | |  | | | |  | |  | | | |    | |  |  | |  |  |  |  | |
   / /  / / / /  / /  / / / /    / /  /  / /  /  /  /  / /

   E E  S S S S  E E  S S S S    q q  S  S S  S  S  S  S S
|-----------------------------|----------------------------------|
|-----------------------------|----------------------------------|
|-----------------------------|--9-9--9--9-9--9--9--9--9-9-------|
|--4-4--4-4-4-4--4-4--4-4-4-4-|--9-9--9--9-9--9--9--9--9-9-------|
|--4-4--4-4-4-4--4-4--4-4-4-4-|--7-7--7--7-7--7--7--7--7-7-------|
|--2-2--2-2-2-2--2-2--2-2-2-2-|----------------------------------|
|
|  Q    Q        Q    Q          Q    E.      S  E  E  E    E
|-14---16-------17---17-------|-16---16------16-12-10------------|
|-----------------------------|-----------------------14---12----|
|-----------------------------|----------------------------------|
|-----------------------------|----------------------------------|
|-----------------------------|----------------------------------|
|-----------------------------|----------------------------------|
|
|  Q    Q        Q    Q          Q    S  S S  S  E  E  E    E
|--2----4--------5----5-------|--4----4--5-4--2--0---------------|
|-----------------------------|---------------------5--4----2----|
|-----------------------------|----------------------------------|
|-----------------------------|----------------------------------|


  A                               D             A
   E E  S S  S S  E E  S S  S S    E E  S S S S  E E  S S  S S
   | |  | |  | |  | |  | |  | |    | |  | | | |  | |  | |  | |
   / /  / /  / /  / /  / /  / /    / /  / / / /  / /  / /  / /

   E E  S S  S S  E E  S S  S S    E E  S S S S  E E  S S  S S
|-------------------------------|------------------------------|
|-------------------------------|------------------------------|
|-------------------------------|--7-7--7-7-7-7----------------|
|--7-7--7-7--7-7--7-7--7-7--7-7-|--7-7--7-7-7-7--7-7--7-7--7-7-|
|--7-7--7-7--7-7--7-7--7-7--7-7-|--5-5--5-5-5-5--7-7--7-7--7-7-|
|--5-5--5-5--5-5--5-5--5-5--5-5-|----------------5-5--5-5--5-5-|
|
|  Q    E    E    Q    E    E      Q    Q        Q    E    E
|-------------------------------|-14---14-------12-------------|
|------12---14--------12---14---|--------------------14---12---|
|-14-------------14-------------|------------------------------|
|-------------------------------|------------------------------|
|-------------------------------|------------------------------|
|-------------------------------|------------------------------|
|
|  ~~             ~~               ~~~~~~~~~~~~~~~~
|  Q    E    E    Q    E    E      Q    Q        Q    E    E
|-------------------------------|--2----2--------0-------------|
|--0----2----4----0----2----4---|---------------------4----2---|
|-------------------------------|------------------------------|
|-------------------------------|------------------------------|


  A              E                A
   E E  S S  S S  E  E S S  S S    E E S S S S E E S S S S
   | |  | |  | |  |  | | |  | |    | | | | | | | | | | | |
   / /  / /  / /  /  / / /  / /    / / / / / / / / / / / /

   E E  S S  S S  E  E S S  S S    E E S S S S E E S S S S
|-------------------------------|-----------------------------|
|-------------------------------|-----------------------------|
|-----------------9--9-9-9--9-9-|-----------------------------|
|--7-7--7-7--7-7--9--9-9-9--9-9-|--7-7-7-7-7-7-7-7-7-7-7-7----|
|--7-7--7-7--7-7--7--7-7-7--7-7-|--7-7-7-7-7-7-7-7-7-7-7-7----|
|--5-5--5-5--5-5----------------|--5-5-5-5-5-5-5-5-5-5-5-5----|
|
|  Q    E    E    Q.        E      W
|-------------------------------|-----------------------------|
|------12---14---12-------------|-----------------------------|
|-14-----------------------14---|-14--------------------------|
|-------------------------------|-----------------------------|
|-------------------------------|-----------------------------|
|-------------------------------|-----------------------------|
|
|  ~~                       ~~~~~~~~~
|  Q    E    E    Q.        E      W
|-------------------------------|-----------------------------|
|--0----2----4----2---------0---|--0--------------------------|
|-------------------------------|-----------------------------|
|-------------------------------|-----------------------------|


 Original Key Again
  G                               C             G
   E E  S S  S S  E E  S S  S S    E E  S S S S  E E  S S  S S
   | |  | |  | |  | |  | |  | |    | |  | | | |  | |  | |  | |
   / /  / /  / /  / /  / /  / /    / /  / / / /  / /  / /  / /

   E E  S S  S S  E E  S S  S S    E E  S S S S  E E  S S  S S
|-------------------------------|------------------------------|
|-------------------------------|------------------------------|
|-------------------------------|--5-5--5-5-5-5----------------|
|--5-5--5-5--5-5--5-5--5-5--5-5-|--5-5--5-5-5-5--5-5--5-5--5-5-|
|--5-5--5-5--5-5--5-5--5-5--5-5-|--3-3--3-3-3-3--5-5--5-5--5-5-|
|--3-3--3-3--3-3--3-3--3-3--3-3-|----------------3-3--3-3--3-3-|
|
|  Q    E    E    Q    E    E      Q    Q        Q    E    E
|-------------------------------|-12---12-------10-------------|
|------10---12--------10---12---|--------------------12---10---|
|-12-------------12-------------|------------------------------|
|-------------------------------|------------------------------|
|-------------------------------|------------------------------|
|-------------------------------|------------------------------|
|
|  ~~             ~~               ~~~~~~~~~~~~~~~~
|  Q    E    E    Q    E    E      Q    Q        Q    E    E
|-------------------------------|------------------------------|
|-------0----2---------0----2---|--7----7--------5----2----0---|
|--5--------------5-------------|------------------------------|
|-------------------------------|------------------------------|


  G                              Em
   E E  S S  S S  E E  S S S S    E  E S S S S E E S S S S
   | |  | |  | |  | |  | | | |    |  | | | | | | | | | | |
   / /  / /  / /  / /  / / / /    /  / / / / / / / / / / /

   E E  S S  S S  E E  S S S S    E  E S S S S E E S S S S
|------------------------------|------------------------------|
|------------------------------|------------------------------|
|------------------------------|------------------------------|
|--5-5--5-5--5-5--5-5--5-5-5-5-|--2--2-2-2-2-2-2-2-2-2-2-2----|
|--5-5--5-5--5-5--5-5--5-5-5-5-|--2--2-2-2-2-2-2-2-2-2-2-2----|
|--3-3--3-3--3-3--3-3--3-3-3-3-|--0--0-0-0-0-0-0-0-0-0-0-0----|
|
|  Q    E    E    Q    Q          H.               Q
|------------------------------|------------------------------|
|------10---12---10------------|------------------------------|
|-12------------------12-------|--9----------------7----------|
|------------------------------|------------------------------|
|------------------------------|------------------------------|
|------------------------------|------------------------------|
|
|  ~~                  ~~~~~~~~~~~~~~
|  Q    E    E    Q    Q          H.               S S E
|------------------------------|------------------------------|
|-------0----2----0------------|------------------------------|
|--5-------------------5-------|-/2----------------4-2-0------|
|------------------------------|------------------------------|


  G                               C             G
   E E  S S  S S  E E  S S  S S    E E  S S S S  E E  S S  S S
   | |  | |  | |  | |  | |  | |    | |  | | | |  | |  | |  | |
   / /  / /  / /  / /  / /  / /    / /  / / / /  / /  / /  / /

   E E  S S  S S  E E  S S  S S    E E  S S S S  E E  S S  S S
|-------------------------------|------------------------------|
|-------------------------------|------------------------------|
|-------------------------------|--5-5--5-5-5-5----------------|
|--5-5--5-5--5-5--5-5--5-5--5-5-|--5-5--5-5-5-5--5-5--5-5--5-5-|
|--5-5--5-5--5-5--5-5--5-5--5-5-|--3-3--3-3-3-3--5-5--5-5--5-5-|
|--3-3--3-3--3-3--3-3--3-3--3-3-|----------------3-3--3-3--3-3-|
|
|  Q    E    E    Q    E    E      Q    Q        Q    E    E
|-------------------------------|-12---12-------10-------------|
|------10---12--------10---12---|--------------------12---10---|
|-12-------------12-------------|------------------------------|
|-------------------------------|------------------------------|
|-------------------------------|------------------------------|
|-------------------------------|------------------------------|
|
|  ~~             ~~               ~~~~~~~~~~~~~~~~
|  Q    E    E    Q    E    E      Q    Q        Q    E    E
|-------------------------------|------------------------------|
|-------0----2---------0----2---|--7----7--------5----2----0---|
|--5--------------5-------------|------------------------------|
|-------------------------------|------------------------------|


  G              D                G
   E E  S S  S S  E  E S S  S S    E  E S S S S E E S S  S S
   | |  | |  | |  |  | | |  | |    |  | | | | | | | | |  | |
   / /  / /  / /  /  / / /  / /    /  / / / / / / / / /  / /

   E E  S S  S S  E  E S S  S S    E  E S S S S E E S S  S S
|-------------------------------|-------------------------------|
|-------------------------------|-------------------------------|
|-----------------7--7-7-7--7-7-|-------------------------------|
|--5-5--5-5--5-5--7--7-7-7--7-7-|--5--5-5-5-5-5-5-5-5-5--5-5----|
|--5-5--5-5--5-5--5--5-5-5--5-5-|--5--5-5-5-5-5-5-5-5-5--5-5----|
|--3-3--3-3--3-3----------------|--3--3-3-3-3-3-3-3-3-3--3-3----|
|
|  Q    E    E    Q.        E      H.               E    E
|-------------------------------|-------------------8---10------|
|------10---12---10-------------|-------------------------------|
|-12-----------------------12---|-12----------------------------|
|-------------------------------|-------------------------------|
|-------------------------------|-------------------------------|
|-------------------------------|-------------------------------|
|
|  ~~                       ~~~~~~~~~~
|  Q    E    E    Q.        E      H.               E    E
|-------------------------------|-------------------------------|
|-------0----2----0-------------|-------------------3----5------|
|--5------------------------5---|--5----------------------------|
|-------------------------------|-------------------------------|


  C                               G
   E  E S S  S S  E E  S S  S S    E  E S S  S S  E E  S S  S S
   |  | | |  | |  | |  | |  | |    |  | | |  | |  | |  | |  | |
   /  / / /  / /  / /  / /  / /    /  / / /  / /  / /  / /  / /

   E  E S S  S S  E E  S S  S S    E  E S S  S S  E E  S S  S S
|-------------------------------|-------------------------------|
|-------------------------------|-------------------------------|
|--5--5-5-5--5-5--5-5--5-5--5-5-|-------------------------------|
|--5--5-5-5--5-5--5-5--5-5--5-5-|--5--5-5-5--5-5--5-5--5-5--5-5-|
|--3--3-3-3--3-3--3-3--3-3--3-3-|--5--5-5-5--5-5--5-5--5-5--5-5-|
|-------------------------------|--3--3-3-3--3-3--3-3--3-3--3-3-|
|
|  Q.        E    Q    E    E      Q.        E    Q    E    E
|-12--------10---12---10--------|-10--------12---10--------10---|
|--------------------------12---|---------------------12--------|
|-------------------------------|-------------------------------|
|-------------------------------|-------------------------------|
|-------------------------------|-------------------------------|
|-------------------------------|-------------------------------|
|
|  Q.        E    Q    S S  E      Q.        E    Q    Q
|-------------------------------|-------------------------------|
|--7---------5----7----5-7--5---|--2---------5----2----0--------|
|-------------------------------|-------------------------------|
|-------------------------------|-------------------------------|


  Em                            D
   E E  S S S S  E E  S S S S    E  E S S  S S  E E  S S  S S
   | |  | | | |  | |  | | | |    |  | | |  | |  | |  | |  | |
   / /  / / / /  / /  / / / /    /  / / /  / /  / /  / /  / /

   E E  S S S S  E E  S S S S    E  E S S  S S  E E  S S  S S
|-----------------------------|----------------------------------|
|-----------------------------|----------------------------------|
|-----------------------------|--7--7-7-7--7-7--7-7--7-7--7-7----|
|--2-2--2-2-2-2--2-2--2-2-2-2-|--7--7-7-7--7-7--7-7--7-7--7-7----|
|--2-2--2-2-2-2--2-2--2-2-2-2-|--5--5-5-5--5-5--5-5--5-5--5-5----|
|--0-0--0-0-0-0--0-0--0-0-0-0-|----------------------------------|
|
|  Q    Q        Q    Q          Q.        E    E E  E    E
|-12---14-------15------------|-10--------12---10-8--------------|
|--------------------12-------|---------------------12---10------|
|-----------------------------|----------------------------------|
|-----------------------------|----------------------------------|
|-----------------------------|----------------------------------|
|-----------------------------|----------------------------------|
|
|  Q    Q        H               Q.        E    Q    E    E
|-----------------------------|----------------------------------|
|-----------------------------|----------------------------------|
|--5----4--------2------------|--4---------2----0----2----4------|
|-----------------------------|----------------------------------|


  G                               C             G
   E E  S S  S S  E E  S S  S S    E E  S S S S  E E  S S  S S
   | |  | |  | |  | |  | |  | |    | |  | | | |  | |  | |  | |
   / /  / /  / /  / /  / /  / /    / /  / / / /  / /  / /  / /

   E E  S S  S S  E E  S S  S S    E E  S S S S  E E  S S  S S
|-------------------------------|------------------------------|
|-------------------------------|------------------------------|
|-------------------------------|--5-5--5-5-5-5----------------|
|--5-5--5-5--5-5--5-5--5-5--5-5-|--5-5--5-5-5-5--5-5--5-5--5-5-|
|--5-5--5-5--5-5--5-5--5-5--5-5-|--3-3--3-3-3-3--5-5--5-5--5-5-|
|--3-3--3-3--3-3--3-3--3-3--3-3-|----------------3-3--3-3--3-3-|
|
|  Q    E    E    Q    E    E      Q    Q        Q    E    E
|-------------------------------|-12---12-------10-------------|
|------10---12--------10---12---|--------------------12---10---|
|-12-------------12-------------|------------------------------|
|-------------------------------|------------------------------|
|-------------------------------|------------------------------|
|-------------------------------|------------------------------|
|
|  ~~             ~~               ~~~~~~~~~~~~~~~~
|  Q    E    E    Q    E    E      Q    Q        Q    E    E
|-------------------------------|------------------------------|
|-------0----2---------0----2---|--7----7--------5----2----0---|
|--5--------------5-------------|------------------------------|
|-------------------------------|------------------------------|


  G              D                G
   E E  S S  S S  E  E S S  S S    E  E S S S S E E S S  S S
   | |  | |  | |  |  | | |  | |    |  | | | | | | | | |  | |
   / /  / /  / /  /  / / /  / /    /  / / / / / / / / /  / /

   E E  S S  S S  E  E S S  S S    E  E S S S S E E S S  S S
|-------------------------------|-------------------------------|
|-------------------------------|-------------------------------|
|-----------------7--7-7-7--7-7-|-------------------------------|
|--5-5--5-5--5-5--7--7-7-7--7-7-|--5--5-5-5-5-5-5-5-5-5--5-5----|
|--5-5--5-5--5-5--5--5-5-5--5-5-|--5--5-5-5-5-5-5-5-5-5--5-5----|
|--3-3--3-3--3-3----------------|--3--3-3-3-3-3-3-3-3-3--3-3----|
|
|  Q    E    E    Q.        E      H.               E    E
|-------------------------------|-------------------8---10------|
|------10---12---10-------------|-------------------------------|
|-12-----------------------12---|-12----------------------------|
|-------------------------------|-------------------------------|
|-------------------------------|-------------------------------|
|-------------------------------|-------------------------------|
|
|  ~~                       ~~~~~~~~~~
|  Q    E    E    Q.        E      H.               E    E
|-------------------------------|-------------------------------|
|-------0----2----0-------------|-------------------3----5------|
|--5------------------------5---|--5----------------------------|
|-------------------------------|-------------------------------|


  C                               G
   E  E S S  S S  E E  S S  S S    E  E S S  S S  E E  S S  S S
   |  | | |  | |  | |  | |  | |    |  | | |  | |  | |  | |  | |
   /  / / /  / /  / /  / /  / /    /  / / /  / /  / /  / /  / /

   E  E S S  S S  E E  S S  S S    E  E S S  S S  E E  S S  S S
|-------------------------------|-------------------------------|
|-------------------------------|-------------------------------|
|--5--5-5-5--5-5--5-5--5-5--5-5-|-------------------------------|
|--5--5-5-5--5-5--5-5--5-5--5-5-|--5--5-5-5--5-5--5-5--5-5--5-5-|
|--3--3-3-3--3-3--3-3--3-3--3-3-|--5--5-5-5--5-5--5-5--5-5--5-5-|
|-------------------------------|--3--3-3-3--3-3--3-3--3-3--3-3-|
|
|  Q.        E    Q    E    E      Q.        E    Q    E    E
|-12--------10---12---10--------|-10--------12---10--------10---|
|--------------------------12---|---------------------12--------|
|-------------------------------|-------------------------------|
|-------------------------------|-------------------------------|
|-------------------------------|-------------------------------|
|-------------------------------|-------------------------------|
|
|  Q.        E    Q    S S  E      Q.        E    Q    Q
|-------------------------------|-------------------------------|
|--7---------5----7----5-7--5---|--2---------5----2----0--------|
|-------------------------------|-------------------------------|
|-------------------------------|-------------------------------|


                                            Q=120
  Em                            D           D
   E E  S S S S  E E  S S S S    W           +W
   | |  | | | |  | |  | | | |    |            |
   / /  / / / /  / /  / / / /    /            /

   E E  S S S S  E E  S S S S    W           +W
|-----------------------------|-----------|---------|
|-----------------------------|-----------|---------|
|-----------------------------|--7--------|--(7)----|
|--2-2--2-2-2-2--2-2--2-2-2-2-|--7--------|--(7)----|
|--2-2--2-2-2-2--2-2--2-2-2-2-|--5--------|--(5)----|
|--0-0--0-0-0-0--0-0--0-0-0-0-|-----------|---------|
|
|  Q    Q        Q    Q          W           +W
|-12---14-------15------------|-10--------|-(10)----|
|--------------------12-------|-----------|---------|
|-----------------------------|-----------|---------|
|-----------------------------|-----------|---------|
|-----------------------------|-----------|---------|
|-----------------------------|-----------|---------|
|
|  Q    Q        H               W           +W
|-----------------------------|-----------|---------|
|-----------------------------|-----------|---------|
|--5----4--------2------------|--4--------|--(4)----|
|-----------------------------|-----------|---------|


 Ending
  G                  G                  C
 3/4
  Gtr I
  Q.    E   E   E    Q.    E   E   E    Q.    E E E
|-3-----3---3---3--|-3-----3---3---3--|-0-----0-0-0-|
|-0-----0---0---0--|-0-----0---0---0--|-1-----1-1-1-|
|-0-----0---0---0--|-0-----0---0---0--|-0-----0-0-0-|
|-0-----0---0---0--|-0-----0---0---0--|-2-----2-2-2-|
|-2----(2)-(2)-(2)-|-2----(2)-(2)-(2)-|-3-----3-3-3-|
|-3----(3)-(3)-(3)-|-3----(3)-(3)-(3)-|-------------|
|
| Gtr IV
| H.                 H         E   E    Q   Q   Q
|------------------|------------------|-------------|
|------------------|------------------|-------------|
|------------------|------------------|---------5---|
|------------------|------------------|-----5-------|
|------------------|------------------|-3-----------|
|------------------|-----------3---5--|-------------|
|
| Gtr II
| ~~                 ~~                 ~~~~~~~~~~~~~
| H         E   E    H         E   E    H.
|------------------|------------------|-------------|
|-----------0---2--|-----------0---2--|-7-----------|
|-5----------------|-5----------------|-------------|
|------------------|------------------|-------------|


                                         Q=170
  G         G          G
  H.        +H.        q  H      H.        H.
|-3-------|-(3)------|-3-------|---------|-------|
|-0-------|-(0)------|-0-------|---------|-------|
|-0-------|-(0)------|-0-------|---------|-------|
|-0-------|-(0)------|-0-------|---------|-------|
|-2-------|-(2)------|-2-------|---------|-------|
|-3-------|-(3)------|-3-------|---------|-------|
|
| H.        +H.        q  H      H.        H.
|---------|----------|---------|---------|-------|
|---------|----------|---------|---------|-------|
|---------|----------|---------|---------|-------|
|-5-------|-(5)------|-5-------|---------|-------|
|-5-------|-(5)------|-5-------|---------|-------|
|-3-------|-(3)------|-3-------|---------|-------|
|
|~~~~~~~~~~~~~~~
| H.        +H.        q  H      H.        H.
|---------|----------|---------|---------|-------|
|-5-------|-(5)------|-5-------|---------|-------|
|---------|----------|---------|---------|-------|
|---------|----------|---------|---------|-------|


  G                               C             G
 4/4
  Gtr I
   E E  S S  S S  E E  S S  S S    E E  S S S S  E E  S S  S S
   | |  | |  | |  | |  | |  | |    | |  | | | |  | |  | |  | |
   / /  / /  / /  / /  / /  / /    / /  / / / /  / /  / /  / /

  Gtr IV
   E E  S S  S S  E E  S S  S S    E E  S S S S  E E  S S  S S
|-------------------------------|------------------------------|
|-------------------------------|------------------------------|
|-------------------------------|--5-5--5-5-5-5----------------|
|--5-5--5-5--5-5--5-5--5-5--5-5-|--5-5--5-5-5-5--5-5--5-5--5-5-|
|--5-5--5-5--5-5--5-5--5-5--5-5-|--3-3--3-3-3-3--5-5--5-5--5-5-|
|--3-3--3-3--3-3--3-3--3-3--3-3-|----------------3-3--3-3--3-3-|
|
| Gtr III
|  Q    E    E    Q    E    E      Q    Q        Q    E    E
|-------------------------------|-12---12-------10-------------|
|------10---12--------10---12---|--------------------12---10---|
|-12-------------12-------------|------------------------------|
|-------------------------------|------------------------------|
|-------------------------------|------------------------------|
|-------------------------------|------------------------------|
|
|  ~~             ~~
|  Q    E    E    Q    E    E      Q    Q        Q    E    E
|-------------------------------|------------------------------|
|-------0----2---------0----2---|--7----7--------5----2----0---|
|--5--------------5-------------|------------------------------|
|-------------------------------|------------------------------|


  G              D                G
   E E  S S  S S  E E  S S  S S    E E S S S S  q  Q
   | |  | |  | |  | |  | |  | |    | | | | | |  |
   / /  / /  / /  / /  / /  / /    / / / / / /  /

   E E  S S  S S  E E  S S  S S    E E S S S S  q  Q
|-------------------------------|---------------------*|
|-------------------------------|---------------------*|
|-----------------7-7--7-7--7-7-|---------------------*|
|--5-5--5-5--5-5--7-7--7-7--7-7-|--5-5-5-5-5-5--5-----*|
|--5-5--5-5--5-5--5-5--5-5--5-5-|--5-5-5-5-5-5--5-----*|
|--3-3--3-3--3-3----------------|--3-3-3-3-3-3--3-----*|
|
|  Q    E    E    E E  E    E      H            q  Q
|----------------10-8-----------|---------------------*|
|------10---12--------12---10---|---------------------*|
|-12----------------------------|-12-----------12-----*|
|-------------------------------|---------------------*|
|-------------------------------|---------------------*|
|-------------------------------|---------------------*|
|
|  Q    E    E    E E  E    E      H            q  Q
|-------------------------------|---------------------*|
|-------0----2----5-3--2----0---|---------------------*|
|--5----------------------------|--5------------5-----*|
|-------------------------------|---------------------*|



Duration Legend
---------------
W - whole; H - half; Q - quarter; E - 8th; S - 16th; T - 32nd; X - 64th; a - acciaccatura
+ - note tied to previous; . - note dotted; .. - note double dotted
Uncapitalized letters represent notes that are staccato (1/2 duration)
Irregular groupings are notated above the duration line
Duration letters will always appear directly above the note/fret number it represents the
duration for.  Duration letters with no fret number below them represent rests.  Multi-
bar rests are notated in the form Wxn, where n is the number of bars to rest for.  Low
melody durations appear below the staff

Tablature Legend
----------------
 h   - hammer-on
 p   - pull-off
 b   - bend
 pb  - pre-bend
 r   - bend release (if no number after the r, then release immediately)
 /\  - slide into or out of (from/to "nowhere")
 s   - legato slide
 S   - shift slide
 - natural harmonic
[n]  - artificial harmonic
n(n) - tapped harmonic
 ~   - vibrato
 tr  - trill
 T   - tap
 TP  - trem. picking
 PM  - palm muting
\n/  - tremolo bar dip; n = amount to dip
 \n  - tremolo bar down
 n/  - tremolo bar up
/n\  - tremolo bar inverted dip
 =   - hold bend; also acts as connecting device for hammers/pulls
 <> - volume swell (louder/softer)
 x   - on rhythm slash represents muted slash
 o   - on rhythm slash represents single note slash

Misc Legend
-----------
 |  - bar
||  - double bar
||o - repeat start
o|| - repeat end
*|  - double bar (ending)
 :  - bar (freetime)
 $  - Segno
 &  - Coda
Tempo markers -  = BPM(8/16=s8/s16), where s8 = swing 8ths, s16 = swing 16ths


            
            
Suggest correction
Creating personal tab
Creating personal tab
You can edit any tab online and save it as your Personal.

You can edit, replace or remove any tab part or add personal notes – all changes will be seen only by you.

Personal tabs can be accessed anytime from any device, even offline.
Learn more »
Give kudos to tab author, rate the tab!
1 2 3 4 5
comments
print report bad tab
2 comments total.
0 reply
shenanigan 1,371 Jul 30, 2008 09:42 AM

just copied a power tab someone else made!
boo!

0 reply
shenanigan 1,371 Aug 06, 2008 11:23 AM

if the one who made the powertab doesn't bother, I won't bother either...

guest
You may want to rate the tab now too:
select rating
Wanna post a correction for this tab? Suggest correction