Oops, an error
Loading. Please wait.

Whats Left Of The Flag bass

version 2
version 2

Whole song

Interactive

963 views 1 this week
1 commentread comment
1 2 3 4 5
3 more votes to show rating
add to favorites
×
Save as Personal and add changes to this tab that will be seen only by you. Learn more ›
×
You can save this tab as Personal to edit and correct it or add notes. All changes will be seen only by you. Learn more »
launch autoscroll
font size
0
reset
guitar tuner
edit
Autoscroll
slow
fast
+/-
esc
set tempo
stop
#----------------------------------PLEASE NOTE---------------------------------#
#This file is the author's own work and represents their interpretation of the #
#song. You may only use this file for private study, scholarship, or research. #
#------------------------------------------------------------------------------#

WHAT'S LEFT OF THE FLAG (Bassline)
As recorded by Flogging Molly
(From the 2002 Album DRUNKEN LULLABIES)

Transcribed by an unregistered user


Words by Dave King Music by Flogging Molly

Gtr I (E A D G) - 'Bass'
Gtr II (G D A E) - 'Steel Guitar'

 First Verse/Chorus
  Q=160
 3/4
  Gtr I
  H.        H.        H.        H.
|---------|---------|---------|-------|
|---------|---------|---------|-------|
|---------|---------|---------|-------|
|---------|---------|---------|-------|
|
| Gtr II
| H.        H.        H.        H.
|---------|---------|---------|-------|
|---------|---------|---------|-------|
|---------|---------|---------|-------|
|---------|---------|---------|-------|


  H.        H.        H.        H.
|---------|---------|---------|-------|
|---------|---------|---------|-------|
|---------|---------|---------|-------|
|---------|---------|---------|-------|
|
| H.        H.        H.        H.
|---------|---------|---------|-------|
|---------|---------|---------|-------|
|---------|---------|---------|-------|
|---------|---------|---------|-------|


  H.        H.        H.        H.
|---------|---------|---------|-------|
|---------|---------|---------|-------|
|---------|---------|---------|-------|
|---------|---------|---------|-------|
|
| H.        H.        H.        H.
|---------|---------|---------|-------|
|---------|---------|---------|-------|
|---------|---------|---------|-------|
|---------|---------|---------|-------|


  H.        H.        H.        H.
|---------|---------|---------|------------|
|---------|---------|---------|------------|
|---------|---------|---------|------------|
|---------|---------|---------|------------|
|
| H.        H.        H.        H     E E
|---------|---------|---------|------------|
|---------|---------|---------|------------|
|---------|---------|---------|------------|
|---------|---------|---------|-------5-7--|


  H.            H.          H.            H.
|-------------|-----------|-------------|------------|
|-------------|-----------|-------------|------------|
|-------------|-----------|-------------|------------|
|-------------|-----------|-------------|------------|
|
| TP                        TP
| H     +E  E   H     E E   H     +E  E   H     E E
|-------------|-----------|-------------|------------|
|-------------|-----------|-------------|------------|
|-2-----(2)-0-|-2-----0---|-0-----(0)-2-|-0-------0--|
|-------------|---------2-|-------------|-------2----|


  H.          H.          H.           H.
|-----------|-----------|------------|---------------|
|-----------|-----------|------------|---------------|
|-----------|-----------|------------|---------------|
|-----------|-----------|------------|---------------|
|
| Q   Q  Q    Q   Q  Q    Q.   E E E   E  E E E E E
|-----------|-----------|------------|---------------|
|-----------|-----------|------------|---------------|
|-2---2--4--|-4---5-----|-0----0-0-2-|---------------|
|-----------|--------4--|------------|-7--5-4-5-4-2--|


  H.          H.          H.         H.
|-----------|-----------|----------|------------|
|-----------|-----------|----------|------------|
|-----------|-----------|----------|------------|
|-----------|-----------|----------|------------|
|
| TP          TP          TP
| H     E E   H     E E   H     Q    H     E E
|-----------|-----------|----------|------------|
|-----------|-----------|----------|------------|
|-----------|-----------|-2-----2--|-0----------|
|-0-----2-4-|-0-----2-4-|----------|-------4-2--|


                                     Q=170
  H.          H.         H.          H.
|-----------|----------|-----------|----------|
|-----------|----------|-----------|----------|
|-----------|----------|-----------|----------|
|-----------|----------|-----------|----------|
|
| TP          TP         TP
| H     E E   H     Q    H     E E   q   H
|-----------|----------|-----------|----------|
|-----------|----------|-----------|----------|
|-----------|----------|-----------|----------|
|-0-----2-4-|-2-----0--|-0-----2-4-|-0--------|


 Tempo Up, Band Joins In
 4/4
  W          W          W          W
|----------|----------|----------|------|
|----------|----------|----------|------|
|----------|----------|----------|------|
|----------|----------|----------|------|
|
| W          W          W          W
|----------|----------|----------|------|
|----------|----------|----------|------|
|----------|----------|----------|------|
|----------|----------|----------|------|


  W          W          W          W
|----------|----------|----------|------|
|----------|----------|----------|------|
|----------|----------|----------|------|
|----------|----------|----------|------|
|
| W          W          W          W
|----------|----------|----------|------|
|----------|----------|----------|------|
|----------|----------|----------|------|
|----------|----------|----------|------|


  C          G          Em         D
  W          W          W          W
|----------|----------|----------|------|
|----------|----------|----------|------|
|-3--------|----------|----------|-5----|
|----------|-3--------|-0--------|------|
|
| W          W          W          W
|-0--------|-3--------|-3--------|-2----|
|-3--------|-2--------|-2--------|-0----|
|-2--------|-0--------|-2--------|-0----|
|-5--------|-0--------|-0--------|------|


  G             C     G       G     D       G
  Q  Q  Q  Q    Q  Q  Q  Q    Q  Q  Q  Q    H             q  Q
|-------------|-------------|-------------|-----------------------|
|-------------|-------------|-------------|-----------------------|
|----5-----5--|-3--------5--|----5--5-----|-----------------------|
|-3-----3-----|----3--3-----|-3--------5--|-3-------------3-------|
|
| H     H       H     H       H     H       E S S S S S S q  E E
|-3-----3-----|-0-----3-----|-3-----2-----|-3-3-3-3-3-3-3-3-------|
|-2-----2-----|-3-----2-----|-2-----0-----|-2-2-2-2-2-2-2-2-------|
|-0-----0-----|-2-----0-----|-0-----0-----|-0-0-0-0-0-0-0-0-------|
|-0-----0-----|-5-----0-----|-0-----------|-0-0-0-0-0-0-0-0--4-2--|


 Verse
  Q  Q   Q  Q     Q  Q  Q  Q     Q  Q   Q  Q    Q  Q  Q  E E
|---------------|--------------|--------------|--------------|
|---------------|--------------|--------------|--------------|
|----5------5---|-3--------5---|----5---------|----2---------|
|-3------3------|----3--3------|-3------3--2--|-0-----0--2-3-|
|
| TP TPTPTP TPTP  TP TP TP TPTP  TP TPTPTP TP   TP
| Q  E E Q  E E   Q  Q  Q  E E   Q  E E Q  Q    W
|---------------|--------------|--------------|--------------|
|---------------|--------------|--------------|--------------|
|---------------|-2--2--0------|--------------|-2------------|
|-0--2-4-0--2-4-|----------4-2-|-0--2-4-2--0--|--------------|


  Q  Q   Q  Q     Q  Q  Q  Q     Q  Q   Q   Q     Q   Q       Q   Q
|---------------|--------------|----------------|-------------------------|
|---------------|--------------|----------------|-------------------------|
|----5------5---|-3--------5---|----5---5-------|-----5-----------5-------|
|-3------3------|----3--3------|-3----------5---|-3-----------3-----------|
|
| TP TPTPTP TPTP  TP TP TP TPTP  TP TPTP
| Q  E E Q  E E   Q  Q  Q  E E   Q  E E E E E E   E E S S S S E E S S S S
|---------------|--------------|----------------|-------------------------|
|---------------|--------------|----------------|-------------------------|
|---------------|-2--2--0------|----------------|-------------------------|
|-0--2-4-0--2-4-|----------4-2-|-0--2-4-7-5-4-2-|-0-0-0-0-0-0-0-0-0-0-0-0-|


    G                         C           G
    Q   Q       Q   Q         Q   Q       Q   Q
||--------------------------|-------------------------|
||o-------------------------|-------------------------|
||o-----5-----------5-------|-3---------------5-------|
||--3-----------3-----------|-----3-------3-----------|
|
|   E E S S S S E E S S S S   E E S S S S E E S S S S
||--3-3-3-3-3-3-3-3-3-3-3-3-|-0-0-0-0-0-0-3-3-3-3-3-3-|
||o-2-2-2-2-2-2-2-2-2-2-2-2-|-3-3-3-3-3-3-2-2-2-2-2-2-|
||o-0-0-0-0-0-0-0-0-0-0-0-0-|-2-2-2-2-2-2-0-0-0-0-0-0-|
||--0-0-0-0-0-0-0-0-0-0-0-0-|-5-5-5-5-5-5-0-0-0-0-0-0-|


  G                         Em
  Q   Q       Q   Q         Q   Q       Q   E   E
|-------------------------|----------------------------|
|-------------------------|----------------------------|
|-----5-------------------|-----2----------------------|
|-3-----------3---2-------|-0-----------0---2---3------|
|
| E E S S S S E E S S S S   E E S S S S E E S S S S
|-3-3-3-3-3-3-3-3-3-3-3-3-|-3-3-3-3-3-3-3-3-3-3-3-3----|
|-2-2-2-2-2-2-2-2-2-2-2-2-|-2-2-2-2-2-2-2-2-2-2-2-2----|
|-0-0-0-0-0-0-0-0-0-0-0-0-|-2-2-2-2-2-2-2-2-2-2-2-2----|
|-0-0-0-0-0-0-0-0-0-0-0-0-|-0-0-0-0-0-0-0-0-0-0-0-0----|


  G                         C           G
  Q   Q       Q   Q         Q   Q       Q   Q
|-------------------------|-------------------------|
|-------------------------|-------------------------|
|-----5-----------5-------|-3---------------5-------|
|-3-----------3-----------|-----3-------3-----------|
|
| E E S S S S E E S S S S   E E S S S S E E S S S S
|-3-3-3-3-3-3-3-3-3-3-3-3-|-0-0-0-0-0-0-3-3-3-3-3-3-|
|-2-2-2-2-2-2-2-2-2-2-2-2-|-3-3-3-3-3-3-2-2-2-2-2-2-|
|-0-0-0-0-0-0-0-0-0-0-0-0-|-2-2-2-2-2-2-0-0-0-0-0-0-|
|-0-0-0-0-0-0-0-0-0-0-0-0-|-5-5-5-5-5-5-0-0-0-0-0-0-|


  G           D             G
  Q   Q       Q   Q         Q   Q       Q   Q
|-------------------------|-----------------------------||
|-------------------------|----------------------------o||
|-----5-------5-----------|-----5-----------5----------o||
|-3---------------5-------|-3-----------3---------------||
|
| E E S S S S E E S S S S   E E S S S S E E S S S S
|-3-3-3-3-3-3-2-2-2-2-2-2-|-3-3-3-3-3-3-3-3-3-3-3-3-----||
|-2-2-2-2-2-2-0-0-0-0-0-0-|-2-2-2-2-2-2-2-2-2-2-2-2----o||
|-0-0-0-0-0-0-0-0-0-0-0-0-|-0-0-0-0-0-0-0-0-0-0-0-0----o||
|-0-0-0-0-0-0-------------|-0-0-0-0-0-0-0-0-0-0-0-0-----||


 Chorus
  C                         G
  Q   Q       Q   Q         Q   Q       Q   Q
|-------------------------|-------------------------|
|-------------------------|-------------------------|
|-3---5-------3---2-------|-------------------------|
|-------------------------|-3---2-------3---5-------|
|
| E E S S S S E E S S S S   E E S S S S E E S S S S
|-0-0-0-0-0-0-0-0-0-0-0-0-|-3-3-3-3-3-3-3-3-3-3-3-3-|
|-3-3-3-3-3-3-3-3-3-3-3-3-|-2-2-2-2-2-2-2-2-2-2-2-2-|
|-2-2-2-2-2-2-2-2-2-2-2-2-|-0-0-0-0-0-0-0-0-0-0-0-0-|
|-5-5-5-5-5-5-5-5-5-5-5-5-|-0-0-0-0-0-0-0-0-0-0-0-0-|


  Em                        D
  Q   Q       Q   Q         Q   Q       Q   Q
|-------------------------|----------------------------|
|-------------------------|----------------------------|
|-7---5-------3---2-------|-5---3-------2---0----------|
|-------------------------|----------------------------|
|
| E E S S S S E E S S S S   E E S S S S E E S S S S
|-3-3-3-3-3-3-3-3-3-3-3-3-|-2-2-2-2-2-2-2-2-2-2-2-2----|
|-2-2-2-2-2-2-2-2-2-2-2-2-|-0-0-0-0-0-0-0-0-0-0-0-0----|
|-2-2-2-2-2-2-2-2-2-2-2-2-|-0-0-0-0-0-0-0-0-0-0-0-0----|
|-0-0-0-0-0-0-0-0-0-0-0-0-|----------------------------|


  G                         C           G
  Q   Q       Q   Q         Q   Q       Q   Q
|-------------------------|-------------------------|
|-------------------------|-------------------------|
|-----5-----------5-------|-3---------------5-------|
|-3-----------3-----------|-----3-------3-----------|
|
| E E S S S S E E S S S S   E E S S S S E E S S S S
|-3-3-3-3-3-3-3-3-3-3-3-3-|-0-0-0-0-0-0-3-3-3-3-3-3-|
|-2-2-2-2-2-2-2-2-2-2-2-2-|-3-3-3-3-3-3-2-2-2-2-2-2-|
|-0-0-0-0-0-0-0-0-0-0-0-0-|-2-2-2-2-2-2-0-0-0-0-0-0-|
|-0-0-0-0-0-0-0-0-0-0-0-0-|-5-5-5-5-5-5-0-0-0-0-0-0-|


  G           D             G
  Q   Q       Q   Q         Q   Q       Q  Q
|-------------------------|--------------------|
|-------------------------|--------------------|
|-----5-------5-----------|-----5--------------|
|-3---------------5-------|-3-----------3------|
|
| E E S S S S E E S S S S   E E S S S S q  Q
|-3-3-3-3-3-3-2-2-2-2-2-2-|-3-3-3-3-3-3-3------|
|-2-2-2-2-2-2-0-0-0-0-0-0-|-2-2-2-2-2-2-2------|
|-0-0-0-0-0-0-0-0-0-0-0-0-|-0-0-0-0-0-0-0------|
|-0-0-0-0-0-0-------------|-0-0-0-0-0-0-0------|


 Main Theme
  G                         C           G
  Q   Q       Q   Q         Q   Q       Q   Q
|-------------------------|-------------------------|
|-------------------------|-------------------------|
|-----5-----------5-------|-3---------------5-------|
|-3-----------3-----------|-----3-------3-----------|
|
| E E S S S S E E S S S S   E E S S S S E E S S S S
|-3-3-3-3-3-3-3-3-3-3-3-3-|-0-0-0-0-0-0-3-3-3-3-3-3-|
|-2-2-2-2-2-2-2-2-2-2-2-2-|-3-3-3-3-3-3-2-2-2-2-2-2-|
|-0-0-0-0-0-0-0-0-0-0-0-0-|-2-2-2-2-2-2-0-0-0-0-0-0-|
|-0-0-0-0-0-0-0-0-0-0-0-0-|-5-5-5-5-5-5-0-0-0-0-0-0-|


  G                         Em
  Q   Q       Q   Q         Q   Q       Q   E   E
|-------------------------|----------------------------|
|-------------------------|----------------------------|
|-----5-------------------|-----2----------------------|
|-3-----------3---2-------|-0-----------0---2---3------|
|
| E E S S S S E E S S S S   E E S S S S E E S S S S
|-3-3-3-3-3-3-3-3-3-3-3-3-|-3-3-3-3-3-3-3-3-3-3-3-3----|
|-2-2-2-2-2-2-2-2-2-2-2-2-|-2-2-2-2-2-2-2-2-2-2-2-2----|
|-0-0-0-0-0-0-0-0-0-0-0-0-|-2-2-2-2-2-2-2-2-2-2-2-2----|
|-0-0-0-0-0-0-0-0-0-0-0-0-|-0-0-0-0-0-0-0-0-0-0-0-0----|


  G                         C           G
  Q   Q       Q   Q         Q   Q       Q   Q
|-------------------------|-------------------------|
|-------------------------|-------------------------|
|-----5-----------5-------|-3---------------5-------|
|-3-----------3-----------|-----3-------3-----------|
|
| E E S S S S E E S S S S   E E S S S S E E S S S S
|-3-3-3-3-3-3-3-3-3-3-3-3-|-0-0-0-0-0-0-3-3-3-3-3-3-|
|-2-2-2-2-2-2-2-2-2-2-2-2-|-3-3-3-3-3-3-2-2-2-2-2-2-|
|-0-0-0-0-0-0-0-0-0-0-0-0-|-2-2-2-2-2-2-0-0-0-0-0-0-|
|-0-0-0-0-0-0-0-0-0-0-0-0-|-5-5-5-5-5-5-0-0-0-0-0-0-|


  G           D             G
  Q   Q       Q   Q         Q   Q       Q   E   E
|-------------------------|----------------------------|
|-------------------------|----------------------------|
|-----5-------5-----------|-----5----------------------|
|-3---------------5-------|-3-----------3---3---3------|
|
| E E S S S S E E S S S S   E E S S S S E E S S S S
|-3-3-3-3-3-3-2-2-2-2-2-2-|-3-3-3-3-3-3-3-3-3-3-3-3----|
|-2-2-2-2-2-2-0-0-0-0-0-0-|-2-2-2-2-2-2-2-2-2-2-2-2----|
|-0-0-0-0-0-0-0-0-0-0-0-0-|-0-0-0-0-0-0-0-0-0-0-0-0----|
|-0-0-0-0-0-0-------------|-0-0-0-0-0-0-0-0-0-0-0-0----|


 Bridge Part
  Em             Em
  H    E E E E   H.      Q
|--------------|------------|
|--------------|-2-------2--|
|------------2-|------------|
|-0----0-2-4---|------------|
|
| W              W
|-3------------|-3----------|
|-2------------|-2----------|
|-2------------|-2----------|
|-0------------|-0----------|


  D                         D
  Q   Q       Q   Q         Q   Q       Q   Q
|-------------------------|--------------------------|
|-------------------------|--------------------------|
|-5-----------5-----------|-5-----------5------------|
|-----5-----------5-------|-----5-----------5--------|
|
| E E S S S S E E S S S S   E E S S S S E E S S S S
|-2-2-2-2-2-2-2-2-2-2-2-2-|-2-2-2-2-2-2-2-2-2-2-2-2--|
|-0-0-0-0-0-0-0-0-0-0-0-0-|-0-0-0-0-0-0-0-0-0-0-0-0--|
|-0-0-0-0-0-0-0-0-0-0-0-0-|-0-0-0-0-0-0-0-0-0-0-0-0--|
|-------------------------|--------------------------|


  Em         Em           D           C             B           A
  W          H    Q  Q    H           H             H           E E E   E
|----------|------------|-------------------------|--------------------------|
|----------|------------|-------------------------|--------------------------|
|----------|------------|-5-----------3-----------|-2-----------0---0---2----|
|-0--------|-0----0--0--|-------------------------|---------------3----------|
|
| W          W            E E S S S S E E S S S S   E E S S S S E E S S S S
|-3--------|-3----------|-2-2-2-2-2-2-0-0-0-0-0-0-|-2-2-2-2-2-2-0-0-0-0-0-0--|
|-2--------|-2----------|-0-0-0-0-0-0-3-3-3-3-3-3-|-2-2-2-2-2-2-4-4-4-4-4-4--|
|-2--------|-2----------|-0-0-0-0-0-0-2-2-2-2-2-2-|-1-1-1-1-1-1-2-2-2-2-2-2--|
|-0--------|-0----------|-------------5-5-5-5-5-5-|-4-4-4-4-4-4-2-2-2-2-2-2--|


  C                         G
  Q   Q       Q   Q         Q   Q       Q   Q
|-------------------------|-------------------------|
|-------------------------|-------------------------|
|-3---5-------3---2-------|-------------------------|
|-------------------------|-3---2-------3---5-------|
|
| E E S S S S E E S S S S   E E S S S S E E S S S S
|-0-0-0-0-0-0-0-0-0-0-0-0-|-3-3-3-3-3-3-3-3-3-3-3-3-|
|-3-3-3-3-3-3-3-3-3-3-3-3-|-2-2-2-2-2-2-2-2-2-2-2-2-|
|-2-2-2-2-2-2-2-2-2-2-2-2-|-0-0-0-0-0-0-0-0-0-0-0-0-|
|-5-5-5-5-5-5-5-5-5-5-5-5-|-0-0-0-0-0-0-0-0-0-0-0-0-|


  Em                        D
  Q   Q       Q   E   E     Q   Q       Q   Q
|-------------------------|----------------------------|
|-------------------------|----------------------------|
|-7---5-------3---2---3---|-5---3-------2---0----------|
|-------------------------|----------------------------|
|
| E E S S S S E E S S S S   E E S S S S E E S S S S
|-3-3-3-3-3-3-3-3-3-3-3-3-|-2-2-2-2-2-2-2-2-2-2-2-2----|
|-2-2-2-2-2-2-2-2-2-2-2-2-|-0-0-0-0-0-0-0-0-0-0-0-0----|
|-2-2-2-2-2-2-2-2-2-2-2-2-|-0-0-0-0-0-0-0-0-0-0-0-0----|
|-0-0-0-0-0-0-0-0-0-0-0-0-|----------------------------|


  G                         C           G
  Q   Q       Q   Q         Q   Q       Q   Q
|-------------------------|-------------------------|
|-------------------------|-------------------------|
|-----5-----------5-------|-3---------------5-------|
|-3-----------3-----------|-----3-------3-----------|
|
| E E S S S S E E S S S S   E E S S S S E E S S S S
|-3-3-3-3-3-3-3-3-3-3-3-3-|-0-0-0-0-0-0-3-3-3-3-3-3-|
|-2-2-2-2-2-2-2-2-2-2-2-2-|-3-3-3-3-3-3-2-2-2-2-2-2-|
|-0-0-0-0-0-0-0-0-0-0-0-0-|-2-2-2-2-2-2-0-0-0-0-0-0-|
|-0-0-0-0-0-0-0-0-0-0-0-0-|-5-5-5-5-5-5-0-0-0-0-0-0-|


  G           D             G
  Q   Q       Q   Q         Q   Q       Q   E   E
|-------------------------|----------------------------|
|-------------------------|----------------------------|
|-----5-------5-----------|-----5----------------------|
|-3---------------5-------|-3-----------3---3---5------|
|
| E E S S S S E E S S S S   E E S S S S E E S S S S
|-3-3-3-3-3-3-2-2-2-2-2-2-|-3-3-3-3-3-3-3-3-3-3-3-3----|
|-2-2-2-2-2-2-0-0-0-0-0-0-|-2-2-2-2-2-2-2-2-2-2-2-2----|
|-0-0-0-0-0-0-0-0-0-0-0-0-|-0-0-0-0-0-0-0-0-0-0-0-0----|
|-0-0-0-0-0-0-------------|-0-0-0-0-0-0-0-0-0-0-0-0----|


 Key Change
  A                         D           A
  Q   Q       Q   Q         Q   Q       Q   Q
|-------------------------|-------------------------|
|-------------------------|-------------------------|
|-----7-----------7-------|-5---------------7-------|
|-5-----------5-----------|-----5-------5-----------|
|
| E E S S S S E E S S S S   E E S S S S E E S S S S
|-0-0-0-0-0-0-0-0-0-0-0-0-|-2-2-2-2-2-2-0-0-0-0-0-0-|
|-4-4-4-4-4-4-4-4-4-4-4-4-|-0-0-0-0-0-0-4-4-4-4-4-4-|
|-2-2-2-2-2-2-2-2-2-2-2-2-|-0-0-0-0-0-0-2-2-2-2-2-2-|
|-2-2-2-2-2-2-2-2-2-2-2-2-|-------------2-2-2-2-2-2-|


  A                         F#m
  Q   Q       Q   Q         Q   Q       Q   E   E
|-------------------------|----------------------------|
|-------------------------|----------------------------|
|-----7-----------7-------|-----4----------------------|
|-5-----------5-----------|-2-----------2---2---4------|
|
| E E S S S S E E S S S S   E E S S S S E E S S S S
|-0-0-0-0-0-0-0-0-0-0-0-0-|-2-2-2-2-2-2-2-2-2-2-2-2----|
|-4-4-4-4-4-4-4-4-4-4-4-4-|-0-0-0-0-0-0-0-0-0-0-0-0----|
|-2-2-2-2-2-2-2-2-2-2-2-2-|-4-4-4-4-4-4-4-4-4-4-4-4----|
|-2-2-2-2-2-2-2-2-2-2-2-2-|----------------------------|


  A                         D           A
  Q   Q       Q   Q         Q   Q       Q   Q
|-------------------------|-------------------------|
|-------------------------|-------------------------|
|-----7-----------7-------|-5---------------7-------|
|-5-----------5-----------|-----5-------5-----------|
|
| E E S S S S E E S S S S   E E S S S S E E S S S S
|-0-0-0-0-0-0-0-0-0-0-0-0-|-2-2-2-2-2-2-0-0-0-0-0-0-|
|-4-4-4-4-4-4-4-4-4-4-4-4-|-0-0-0-0-0-0-4-4-4-4-4-4-|
|-2-2-2-2-2-2-2-2-2-2-2-2-|-0-0-0-0-0-0-2-2-2-2-2-2-|
|-2-2-2-2-2-2-2-2-2-2-2-2-|-------------2-2-2-2-2-2-|


  A           E             A
  Q   Q       Q   Q         Q   Q       E E E   E
|-------------------------|----------------------------|
|-------------------------|----------------------------|
|-----7-------7-----------|-----7-----------2---4------|
|-5---------------7-------|-5-----------5-5------------|
|
| E E S S S S E E S S S S   E E S S S S E E S S S S
|-0-0-0-0-0-0-4-4-4-4-4-4-|-0-0-0-0-0-0-0-0-0-0-0-0----|
|-4-4-4-4-4-4-2-2-2-2-2-2-|-4-4-4-4-4-4-4-4-4-4-4-4----|
|-2-2-2-2-2-2-2-2-2-2-2-2-|-2-2-2-2-2-2-2-2-2-2-2-2----|
|-2-2-2-2-2-2-------------|-2-2-2-2-2-2-2-2-2-2-2-2----|


  D                         A
  Q   Q       Q   E   E     Q   Q       Q   Q
|-------------------------|-------------------------|
|-------------------------|-------------------------|
|-5-----------5-----------|-----7-----------7-------|
|-----5-----------5---4---|-5-----------5-----------|
|
| E E S S S S E E S S S S   E E S S S S E E S S S S
|-2-2-2-2-2-2-2-2-2-2-2-2-|-0-0-0-0-0-0-0-0-0-0-0-0-|
|-0-0-0-0-0-0-0-0-0-0-0-0-|-4-4-4-4-4-4-4-4-4-4-4-4-|
|-0-0-0-0-0-0-0-0-0-0-0-0-|-2-2-2-2-2-2-2-2-2-2-2-2-|
|-------------------------|-2-2-2-2-2-2-2-2-2-2-2-2-|


  F#m                       E       D
  Q   Q       Q   Q         q  q  E E E E
|-------------------------|---------------|
|-------------------------|---------------|
|-9-----------9-----------|-7--7--7-5-4-2-|
|-----9-----------9-------|---------------|
|
| E E S S S S E E S S S S   q  q  E E E E
|-2-2-2-2-2-2-2-2-2-2-2-2-|-4--4--4-2-----|
|-0-0-0-0-0-0-0-0-0-0-0-0-|-2--2--2-0-4-2-|
|-4-4-4-4-4-4-4-4-4-4-4-4-|-2--2--2-0-----|
|-------------------------|---------------|


  A                         D           A
  Q   Q       Q   Q         Q   Q       Q   Q
|-------------------------|-------------------------|
|-------------------------|-------------------------|
|-----7-----------7-------|-5---------------7-------|
|-5-----------5-----------|-----5-------5-----------|
|
| E E S S S S E E S S S S   E E S S S S E E S S S S
|-0-0-0-0-0-0-0-0-0-0-0-0-|-2-2-2-2-2-2-0-0-0-0-0-0-|
|-4-4-4-4-4-4-4-4-4-4-4-4-|-0-0-0-0-0-0-4-4-4-4-4-4-|
|-2-2-2-2-2-2-2-2-2-2-2-2-|-0-0-0-0-0-0-2-2-2-2-2-2-|
|-2-2-2-2-2-2-2-2-2-2-2-2-|-------------2-2-2-2-2-2-|


  A           D             A
  Q   Q       Q   Q         Q   Q       Q   Q
|-------------------------|----------------------------|
|-------------------------|----------------------------|
|-----7-------7-----------|-----7-----------7----------|
|-5---------------7-------|-5-----------5--------------|
|
| E E S S S S E E S S S S   E E S S S S E E S S S S
|-0-0-0-0-0-0-4-4-4-4-4-4-|-0-0-0-0-0-0-0-0-0-0-0-0----|
|-4-4-4-4-4-4-2-2-2-2-2-2-|-4-4-4-4-4-4-4-4-4-4-4-4----|
|-2-2-2-2-2-2-2-2-2-2-2-2-|-2-2-2-2-2-2-2-2-2-2-2-2----|
|-2-2-2-2-2-2-------------|-2-2-2-2-2-2-2-2-2-2-2-2----|


 Original Key Again
  G                         C           G
  Q   Q       Q   Q         Q   Q       Q   Q
|-------------------------|-------------------------|
|-------------------------|-------------------------|
|-----5-----------5-------|-3---------------5-------|
|-3-----------3-----------|-----3-------3-----------|
|
| E E S S S S E E S S S S   E E S S S S E E S S S S
|-3-3-3-3-3-3-3-3-3-3-3-3-|-0-0-0-0-0-0-3-3-3-3-3-3-|
|-2-2-2-2-2-2-2-2-2-2-2-2-|-3-3-3-3-3-3-2-2-2-2-2-2-|
|-0-0-0-0-0-0-0-0-0-0-0-0-|-2-2-2-2-2-2-0-0-0-0-0-0-|
|-0-0-0-0-0-0-0-0-0-0-0-0-|-5-5-5-5-5-5-0-0-0-0-0-0-|


  G                         Em
  Q   Q       Q   Q         Q   Q       Q   E   E
|-------------------------|----------------------------|
|-------------------------|----------------------------|
|-----5-------------------|-----2----------------------|
|-3-----------3---2-------|-0-----------0---2---3------|
|
| E E S S S S E E S S S S   E E S S S S E E S S S S
|-3-3-3-3-3-3-3-3-3-3-3-3-|-3-3-3-3-3-3-3-3-3-3-3-3----|
|-2-2-2-2-2-2-2-2-2-2-2-2-|-2-2-2-2-2-2-2-2-2-2-2-2----|
|-0-0-0-0-0-0-0-0-0-0-0-0-|-2-2-2-2-2-2-2-2-2-2-2-2----|
|-0-0-0-0-0-0-0-0-0-0-0-0-|-0-0-0-0-0-0-0-0-0-0-0-0----|


  G                         C           G
  Q   Q       Q   Q         Q   Q       Q   Q
|-------------------------|-------------------------|
|-------------------------|-------------------------|
|-----5-----------5-------|-3---------------5-------|
|-3-----------3-----------|-----3-------3-----------|
|
| E E S S S S E E S S S S   E E S S S S E E S S S S
|-3-3-3-3-3-3-3-3-3-3-3-3-|-0-0-0-0-0-0-3-3-3-3-3-3-|
|-2-2-2-2-2-2-2-2-2-2-2-2-|-3-3-3-3-3-3-2-2-2-2-2-2-|
|-0-0-0-0-0-0-0-0-0-0-0-0-|-2-2-2-2-2-2-0-0-0-0-0-0-|
|-0-0-0-0-0-0-0-0-0-0-0-0-|-5-5-5-5-5-5-0-0-0-0-0-0-|


  G           D             G
  Q   Q       Q   Q         Q   Q       Q   Q
|-------------------------|----------------------------|
|-------------------------|----------------------------|
|-----5-------5-----------|-----5-----------5----------|
|-3---------------5-------|-3-----------3--------------|
|
| E E S S S S E E S S S S   E E S S S S E E S S S S
|-3-3-3-3-3-3-2-2-2-2-2-2-|-3-3-3-3-3-3-3-3-3-3-3-3----|
|-2-2-2-2-2-2-0-0-0-0-0-0-|-2-2-2-2-2-2-2-2-2-2-2-2----|
|-0-0-0-0-0-0-0-0-0-0-0-0-|-0-0-0-0-0-0-0-0-0-0-0-0----|
|-0-0-0-0-0-0-------------|-0-0-0-0-0-0-0-0-0-0-0-0----|


  C                         G
  Q   Q       Q   Q         Q   Q       Q   Q
|-------------------------|-------------------------|
|-------------------------|-------------------------|
|-3---5-------3---2-------|-------------------------|
|-------------------------|-3---2-------3---5-------|
|
| E E S S S S E E S S S S   E E S S S S E E S S S S
|-0-0-0-0-0-0-0-0-0-0-0-0-|-3-3-3-3-3-3-3-3-3-3-3-3-|
|-3-3-3-3-3-3-3-3-3-3-3-3-|-2-2-2-2-2-2-2-2-2-2-2-2-|
|-2-2-2-2-2-2-2-2-2-2-2-2-|-0-0-0-0-0-0-0-0-0-0-0-0-|
|-5-5-5-5-5-5-5-5-5-5-5-5-|-0-0-0-0-0-0-0-0-0-0-0-0-|


  Em                        D
  Q   Q       Q   Q         Q   Q       Q   Q
|-------------------------|----------------------------|
|-------------------------|----------------------------|
|-7---5-------3---2-------|-5---3-------2---0----------|
|-------------------------|----------------------------|
|
| E E S S S S E E S S S S   E E S S S S E E S S S S
|-3-3-3-3-3-3-3-3-3-3-3-3-|-2-2-2-2-2-2-2-2-2-2-2-2----|
|-2-2-2-2-2-2-2-2-2-2-2-2-|-0-0-0-0-0-0-0-0-0-0-0-0----|
|-2-2-2-2-2-2-2-2-2-2-2-2-|-0-0-0-0-0-0-0-0-0-0-0-0----|
|-0-0-0-0-0-0-0-0-0-0-0-0-|----------------------------|


  G                         C           G
  Q   Q       Q   Q         Q   Q       Q   Q
|-------------------------|-------------------------|
|-------------------------|-------------------------|
|-----5-----------5-------|-3---------------5-------|
|-3-----------3-----------|-----3-------3-----------|
|
| E E S S S S E E S S S S   E E S S S S E E S S S S
|-3-3-3-3-3-3-3-3-3-3-3-3-|-0-0-0-0-0-0-3-3-3-3-3-3-|
|-2-2-2-2-2-2-2-2-2-2-2-2-|-3-3-3-3-3-3-2-2-2-2-2-2-|
|-0-0-0-0-0-0-0-0-0-0-0-0-|-2-2-2-2-2-2-0-0-0-0-0-0-|
|-0-0-0-0-0-0-0-0-0-0-0-0-|-5-5-5-5-5-5-0-0-0-0-0-0-|


  G           D             G
  Q   Q       Q   Q         Q   Q       Q   E   E
|-------------------------|----------------------------|
|-------------------------|----------------------------|
|-----5-------5-----------|-----5-----------0---2------|
|-3---------------5-------|-3-----------3--------------|
|
| E E S S S S E E S S S S   E E S S S S E E S S S S
|-3-3-3-3-3-3-2-2-2-2-2-2-|-3-3-3-3-3-3-3-3-3-3-3-3----|
|-2-2-2-2-2-2-0-0-0-0-0-0-|-2-2-2-2-2-2-2-2-2-2-2-2----|
|-0-0-0-0-0-0-0-0-0-0-0-0-|-0-0-0-0-0-0-0-0-0-0-0-0----|
|-0-0-0-0-0-0-------------|-0-0-0-0-0-0-0-0-0-0-0-0----|


  C                         G
  Q   Q       Q   Q         Q   Q       Q   Q
|-------------------------|-------------------------|
|-------------------------|-------------------------|
|-3---5-------3---2-------|-------------------------|
|-------------------------|-3---2-------3---5-------|
|
| E E S S S S E E S S S S   E E S S S S E E S S S S
|-0-0-0-0-0-0-0-0-0-0-0-0-|-3-3-3-3-3-3-3-3-3-3-3-3-|
|-3-3-3-3-3-3-3-3-3-3-3-3-|-2-2-2-2-2-2-2-2-2-2-2-2-|
|-2-2-2-2-2-2-2-2-2-2-2-2-|-0-0-0-0-0-0-0-0-0-0-0-0-|
|-5-5-5-5-5-5-5-5-5-5-5-5-|-0-0-0-0-0-0-0-0-0-0-0-0-|


                                       Q=120
  Em                        D          D
  Q   Q       Q   Q         W          +W
|-------------------------|----------|--------|
|-------------------------|----------|--------|
|-7---5-------3---2-------|-5--------|-(5)----|
|-------------------------|----------|--------|
|
| E E S S S S E E S S S S   W          +W
|-3-3-3-3-3-3-3-3-3-3-3-3-|-2--------|-(2)----|
|-2-2-2-2-2-2-2-2-2-2-2-2-|-0--------|-(0)----|
|-2-2-2-2-2-2-2-2-2-2-2-2-|-0--------|-(0)----|
|-0-0-0-0-0-0-0-0-0-0-0-0-|----------|--------|


 Ending
 3/4
  <
  H.          +H.          +H.
|-----------|------------|------------|
|-----------|------------|------------|
|-----------|------------|------------|
|-3---------|-(3)--------|-(3)--------|
|
| TP           TP
| H     E E    H     E E    Q   Q  Q
|-----------|------------|---------0--|
|-------0-2-|--------0-2-|------2-----|
|-5---------|--5---------|--2---------|
|-----------|------------|------------|


                                          Q=170
                        G
  +H.        +H.        q  H      H.        H.
|----------|----------|---------|---------|-------|
|----------|----------|---------|---------|-------|
|----------|----------|---------|---------|-------|
|-(3)------|-(3)------|-3-------|---------|-------|
|
|  H.        +H.        q  H      H.        H.
|----------|----------|-3-------|---------|-------|
|--5-------|-(5)------|-2-------|---------|-------|
|----------|----------|-0-------|---------|-------|
|----------|----------|-0-------|---------|-------|


 4/4
  Q  Q   Q  Q     Q  Q  Q  Q     Q  Q   Q   Q     Q  Q  q  Q
|---------------|--------------|----------------|--------------*|
|---------------|--------------|----------------|--------------*|
|----5------5---|-3--------5---|----5---5-------|----5---------*|
|-3------3------|----3--3------|-3----------5---|-3-----3------*|
|
| TP     TP
| Q  E E Q  E E   Q  Q  Q  E E   Q  E E E E E E   H     q  Q
|---------------|-0--0---------|----------------|--------------*|
|----0-2----0-2-|-------5--2-0-|----0-2-5-3-2-0-|--------------*|
|-5------5------|--------------|-5--------------|-5-----5------*|
|---------------|--------------|----------------|--------------*|



Duration Legend
---------------
W - whole; H - half; Q - quarter; E - 8th; S - 16th; T - 32nd; X - 64th; a - acciaccatura
+ - note tied to previous; . - note dotted; .. - note double dotted
Uncapitalized letters represent notes that are staccato (1/2 duration)
Irregular groupings are notated above the duration line
Duration letters will always appear directly above the note/fret number it represents the
duration for.  Duration letters with no fret number below them represent rests.  Multi-
bar rests are notated in the form Wxn, where n is the number of bars to rest for.  Low
melody durations appear below the staff

Tablature Legend
----------------
 h   - hammer-on
 p   - pull-off
 b   - bend
 pb  - pre-bend
 r   - bend release (if no number after the r, then release immediately)
 /\  - slide into or out of (from/to "nowhere")
 s   - legato slide
 S   - shift slide
 - natural harmonic
[n]  - artificial harmonic
n(n) - tapped harmonic
 ~   - vibrato
 tr  - trill
 T   - tap
 TP  - trem. picking
 PM  - palm muting
\n/  - tremolo bar dip; n = amount to dip
 \n  - tremolo bar down
 n/  - tremolo bar up
/n\  - tremolo bar inverted dip
 =   - hold bend; also acts as connecting device for hammers/pulls
 <> - volume swell (louder/softer)
 x   - on rhythm slash represents muted slash
 o   - on rhythm slash represents single note slash

Misc Legend
-----------
 |  - bar
||  - double bar
||o - repeat start
o|| - repeat end
*|  - double bar (ending)
 :  - bar (freetime)
 $  - Segno
 &  - Coda
Tempo markers -  = BPM(8/16=s8/s16), where s8 = swing 8ths, s16 = swing 16ths


            
            
Suggest correction
Creating personal tab
Creating personal tab
You can edit any tab online and save it as your Personal.

You can edit, replace or remove any tab part or add personal notes – all changes will be seen only by you.

Personal tabs can be accessed anytime from any device, even offline.
Learn more »
Give kudos to tab author, rate the tab!
1 2 3 4 5
comments
print report bad tab
1 comment total.
0 reply
thunderhawk 535 Dec 06, 2008 05:14 PM

its very confusing to read :( i am sure its good notes just way to hard to read. like why is there guitar stuff in the bass stuff? there is no need for it. maby if you deleated all the guitar stuff then it would be good

guest
You may want to rate the tab now too:
select rating
Wanna post a correction for this tab? Suggest correction