Oops, an error
Loading. Please wait.

Whats Left Of The Flag tab

version 2
version 2

Whole song

Interactive

2,493 views 1 this week
1 commentread comment
1 2 3 4 5
x 3
add to favorites
×
Save as Personal and add changes to this tab that will be seen only by you. Learn more ›
×
You can save this tab as Personal to edit and correct it or add notes. All changes will be seen only by you. Learn more »
launch autoscroll
font size
0
reset
how to read this tab
guitar tuner
edit
Autoscroll
slow
fast
+/-
esc
set tempo
stop
Difficulty
----------------------------------------------------------------------------
 WHAT'S LEFT OF THE FLAG - Flogging Molly
----------------------------------------------------------------------------
*-palm mute
X-don't play string
0-no fret
----------------------------------------------------------------------------
His eyes they closed and his last breath spoke
He had seen all to be seen
A life once full, now an empty vase
Wilt the blossums on his early grave
Walk away me boy, walk away me boy
And by mornin' we'll be free
Wipe that golden tear from your mother dear
And raise what's left of the flag for me
Then the rosary beads,
count them one, two, three
Fell apart as they hit the floor
              
   In a garb of black we must pay respect
e|-1------------1-----1------1-----------|
B|---------------------------------------|
G|---------------------------------------|
D|---------------------------------------|
A|-2------------2-----2------2-----------|
E|-3------------3-----3------3-----------|

   To the colour we're born to mourn
e|-1------1------------1-------1----|
B|----------------------------------|
G|----------------------------------|
D|----------------------------------|
A|-2------2------------2-------2----|
E|-3------3------------3-------3----|
                                 
   Walk away me boys, walk away me boys
e|--------------------------------------|
B|-1------------------1-----------------|
G|--------------------------------------|
D|-2------------------2-----------------|
A|-3------------------3-----------------|
E|-X------------------X-----------------|
                       
   By morning we'll be free
e|--------------------------|
B|-1------------------1-----|
G|--------------------------|
D|-2------------------2-----|
A|-3------------------3-----|
E|-X------------------X-----|
   
   Wipe the golden tear from your mother dear
e|-3---3---3---3---3---3---3---3---3---3---3--|
B|--------------------------------------------|
G|--------------------------------------------|
D|--------------------------------------------|
A|-2---2---2---2---2---2---2---2---2---2---2--|
E|-3---3---3---3---3---3---3---3---3---3---3--|

   And raise what's left of the flag for me! YAH!
e|-3---3---3---3---3---3---3---3---3---3---3-----|
B|-----------------------------------------------|
G|-----------------------------------------------|
D|-----------------------------------------------|
A|-2---2---2---2---2---2---2---2---2---2---2-----|
E|-3---3---3---3---3---3---3---3---3---3---3-----|

e|-3---3---3---3---3---3---3---3---3---3---3---3---3---3---3-|
B|-----------------------------------------------------------|
G|-----------------------------------------------------------|
D|-----------------------------------------------------------|
A|-2---2---2---2---2---2---2---2---2---2---2---2---2---2---2-|
E|-3---3---3---3---3---3---3---3---3---3---3---3---3---3---3-|

e|-3---3---3---3---3---3---3---3---3---3---3---3---3---3---3-|
B|-----------------------------------------------------------|
G|-----------------------------------------------------------|
D|-----------------------------------------------------------|
A|-2---2---2---2---2---2---2---2---2---2---2---2---2---2---2-|
E|-3---3---3---3---3---3---3---3---3---3---3---3---3---3---3-|
                                         
   In his place there grew an angry festered wound
e|-2------------------2----------------------------|
B|-1------------------1----------------------------|
G|-2------------------2----------------------------|
D|-0------------------0----------------------------|
A|-------------------------------------------------|
E|-------------------------------------------------|
                  
   Filled with hatred and remorse
e|-2-------------2----------------|
B|-1-------------1----------------|
G|-2-------------2----------------|
D|-0-------------0----------------|
A|--------------------------------|
E|--------------------------------|
                 
   Where I'd pick and scratch till the blood it matched
e|-2----------------------2-----------------------------|
B|-1----------------------1-----------------------------|
G|-2----------------------2-----------------------------|
D|-0----------------------0-----------------------------|
A|------------------------------------------------------|
E|------------------------------------------------------|
                              
   To silent rage now that fills my lungs
e|-2------------------2----------------------------|
B|-1------------------1----------------------------|
G|-2------------------2----------------------------|
D|-0------------------0----------------------------|
A|-------------------------------------------------|
E|-------------------------------------------------|
     
   For there are many ways to kill a man they say
e|-2-----------------------2----------------------|
B|-1-----------------------1----------------------|
G|-2-----------------------2----------------------|
D|-0-----------------------0----------------------|
A|------------------------------------------------|
E|------------------------------------------------|
       
   With bayonet, axe, or sword
e|-2-------------2-------------|
B|-1-------------1-------------|
G|-2-------------2-------------|
D|-0-------------0-------------|
A|-----------------------------|
E|-----------------------------|
   C                C                
   But son a bullet fired from a shapeless guise
e|-2----------------2----------------------------|
B|-1----------------1----------------------------|
G|-2----------------2----------------------------|
D|-0----------------0----------------------------|
A|-----------------------------------------------|
E|-----------------------------------------------|
   C              C           
   Leaves but the shell of a Thompson gun
e|-2--------------2-----------------------|
B|-1--------------1-----------------------|
G|-2--------------2-----------------------|
D|-0--------------0-----------------------|
A|----------------------------------------|
E|----------------------------------------|

   Walk away me boys, walk away me boys
e|--------------------------------------|
B|-1--1--1--1--1--1--1--1--1--1--1--1---|
G|--------------------------------------|
D|-2--2--2--2--2--2--2--2--2--2--2--2---|
A|-3--3--3--3--3--3--3--3--3--3--3--3---|
E|-X--X--X--X--X--X--X--X--X--X--X--X---|

   And by morning we'll be free
e|-------------------------------|
B|-1--1--1--1--1--1--1--1--1--1--|
G|-------------------------------|
D|-2--2--2--2--2--2--2--2--2--2--|
A|-3--3--3--3--3--3--3--3--3--3--|
E|-X--X--X--X--X--X--X--X--X--X--|

   Wipe that golden tear from your mother dear
e|-3---3---3---3---3---3---3---3---3---3---3--|
B|--------------------------------------------|
G|--------------------------------------------|
D|--------------------------------------------|
A|-2---2---2---2---2---2---2---2---2---2---2--|
E|-3---3---3---3---3---3---3---3---3---3---3--|

   And raise what's left of the flag for me! YAH!
e|-3---3---3---3---3---3---3---3---3---3---3-----|
B|-----------------------------------------------|
G|-----------------------------------------------|
D|-----------------------------------------------|
A|-2---2---2---2---2---2---2---2---2---2---2-----|
E|-3---3---3---3---3---3---3---3---3---3---3-----|

e|-3---3---3---3---3---3---3---3---3---3---3---3---3---3---3-|
B|-----------------------------------------------------------|
G|-----------------------------------------------------------|
D|-----------------------------------------------------------|
A|-2---2---2---2---2---2---2---2---2---2---2---2---2---2---2-|
E|-3---3---3---3---3---3---3---3---3---3---3---3---3---3---3-|

e|-3---3---3---3---3---3---3---3---3---3---3---3---3---3---3-|
B|-----------------------------------------------------------|
G|-----------------------------------------------------------|
D|-----------------------------------------------------------|
A|-2---2---2---2---2---2---2---2---2---2---2---2---2---2---2-|
E|-3---3---3---3---3---3---3---3---3---3---3---3---3---3---3-|

   From the East out to the Western shore
e|-2-----------------2----------------------|
B|-1-----------------1----------------------|
G|-2-----------------2----------------------|
D|-0-----------------0----------------------|
A|------------------------------------------|
E|------------------------------------------|
   Where many men and many more will fall
e|-2--------------2----------------------|
B|-1--------------1----------------------|
G|-2--------------2----------------------|
D|-0--------------0----------------------|
A|---------------------------------------|
E|---------------------------------------|
   But no angel flies with me tonight
e|-2------------2----------------------|
B|-1------------1----------------------|
G|-2------------2----------------------|
D|-0------------0----------------------|
A|-------------------------------------|
E|-------------------------------------|
   Till freedom reigns on all
e|-2------------2-------------|
B|-1------------1-------------|
G|-2------------2-------------|
D|-0------------0-------------|
A|----------------------------|
E|----------------------------|
   And curse the name for which we slaved our days
e|-2------------------2---------------------------|
B|-1------------------1---------------------------|
G|-2------------------2---------------------------|
D|-0------------------0---------------------------|
A|------------------------------------------------|
E|------------------------------------------------|
   Till every man chose his kingdom come
e|-2--------------2----------------------|
B|-1--------------1----------------------|
G|-2--------------2----------------------|
D|-0--------------0----------------------|
A|---------------------------------------|
E|---------------------------------------|

e|-3---3---3---3---3---3---3---3---3---3---3---3---3---3---3-|
B|-----------------------------------------------------------|
G|-----------------------------------------------------------|
D|-----------------------------------------------------------|
A|-2---2---2---2---2---2---2---2---2---2---2---2---2---2---2-|
E|-3---3---3---3---3---3---3---3---3---3---3---3---3---3---3-|

e|-3---3---3---3---3---3---3---3---3---3---3---3---3---3---3-|
B|-----------------------------------------------------------|
G|-----------------------------------------------------------|
D|-----------------------------------------------------------|
A|-2---2---2---2---2---2---2---2---2---2---2---2---2---2---2-|
E|-3---3---3---3---3---3---3---3---3---3---3---3---3---3---3-|   

   But sure as night turns day
e|-2-----------2---------------|
B|-1-----------1---------------|
G|-2-----------2---------------|
D|-0-----------0---------------|
A|-----------------------------|
E|-----------------------------|
   Ends the passion play
e|-2--------2------------|
B|-1--------1------------|
G|-2--------2------------|
D|-0--------0------------|
A|-----------------------|
E|-----------------------|
   Oh my god what have they done
e|-2--------------2--------------|
B|-1--------------1--------------|
G|-2--------------2--------------|
D|-0--------------0--------------|
A|-------------------------------|
E|-------------------------------|
   With madman's rage, well they dug our graves
e|-2-------------------2-----------------------|
B|-1-------------------1-----------------------|
G|-2-------------------2-----------------------|
D|-0-------------------0-----------------------|
A|---------------------------------------------|
E|---------------------------------------------|
   But the dead rose again you fools
e|-2-----------------2----------------------|
B|-1-----------------1----------------------|
G|-2-----------------2----------------------|
D|-0-----------------0----------------------|
A|------------------------------------------|
E|------------------------------------------|

   Walk away me boys, walk away me boys
e|--------------------------------------|
B|-1------------------1-----------------|
G|--------------------------------------|
D|-2------------------2-----------------|
A|-3------------------3-----------------|
E|-X------------------X-----------------|
   
   And by morning we'll be free 
e|--------------------------|
B|-1------------------1-----|
G|--------------------------|
D|-2------------------2-----|
A|-3------------------3-----|
E|-X------------------X-----|

   Wipe that golden tear from your mother dear
e|-3---3---3---3---3---3---3---3---3---3---3--|
B|--------------------------------------------|
G|--------------------------------------------|
D|--------------------------------------------|
A|-2---2---2---2---2---2---2---2---2---2---2--|
E|-3---3---3---3---3---3---3---3---3---3---3--|
   
And raise what's left of the flag for me!
e|-3---3---3---3---3---3---3---3---3---3---3--|
B|--------------------------------------------|
G|--------------------------------------------|
D|--------------------------------------------|
A|-2---2---2---2---2---2---2---2---2---2---2--|
E|-3---3---3---3---3---3---3---3---3---3---3--|

   Walk away me boys, walk away me boys
e|-------------------------------------|
B|-1--1--1--1--1--1--1--1--1--1--1--1--|
G|-------------------------------------|
D|-2--2--2--2--2--2--2--2--2--2--2--2--|
A|-3--3--3--3--3--3--3--3--3--3--3--3--|
E|-X--X--X--X--X--X--X--X--X--X--X--X--|   

   And by morning we'll be free
e|-------------------------------|
B|-1--1--1--1--1--1--1--1--1--1--|
G|-------------------------------|
D|-2--2--2--2--2--2--2--2--2--2--|
A|-3--3--3--3--3--3--3--3--3--3--|
E|-X--X--X--X--X--X--X--X--X--X--|   
   
  Wipe that golden tear from your mother dear
e|-----------------------3---------------------*-|
B|---------------------------------------------*-|
G|---------------------------------------------*-|
D|---------------------------------------------*-|
A|-----------------------2---------------------*-|
E|-----------------------3---------------------*-|
                        
And raise what's left of the flag for me! YAH!
e|--------------------------------------------|
B|--------------------------------------------|
G|--N-O-T-H-I-N-G---P-L-A-Y-E-D---------------|
D|--------------------------------------------|
A|--------------------------------------------|
E|--------------------------------------------|

e|-3---3---3---3---3---3---3---3---3---3-|
B|---------------------------------------|
G|---------------------------------------|
D|---------------------------------------|
A|-2---2---2---2---2---2---2---2---2---2-|
E|-3---3---3---3---3---3---3---3---3---3-|


e|-3---3---3---3---3---3---3---3---3---3-|
B|---------------------------------------|
G|---------------------------------------|
D|---------------------------------------|
A|-2---2---2---2---2---2---2---2---2---2-|
E|-3---3---3---3---3---3---3---3---3---3-|


--E-N-D---O-F---S-O-N-G-!--

Suggest correction
Creating personal tab
Creating personal tab
You can edit any tab online and save it as your Personal.

You can edit, replace or remove any tab part or add personal notes – all changes will be seen only by you.

Personal tabs can be accessed anytime from any device, even offline.
Learn more »
Give kudos to tab author, rate the tab!
1 2 3 4 5
comments
print report bad tab
1 comment total.
0 reply
AnjiRockah 10 Sep 23, 2007 01:12 PM

what the ****.

guest
Wanna post a correction for this tab? Suggest correction