Oops, an error
Loading. Please wait.

Oh Yes There Will Be Blood Tab

1,428 views 1 this week
no commentswrite comment
1 2 3 4 5
excellent!
x 4
add to favorites
launch autoscroll
font size
0
reset
how to read this tab
guitar tuner
Tab Pro tools
  • play this tab
  • loop segment
  • change instrument
  • show fretboard
  • metronome
Autoscroll
slow
fast
+/-
esc
set tempo
stop
Contributor
-------------------------------------------------------------------------------
               Oh Yes, There Will Be Blood - Flood of Red
-------------------------------------------------------------------------------
Tabbed by:raeleyn
Email:raeleyn@yahoo.com

Tuning:Drop D

e|-3---------------------------------------------------------------------------------|
B|-3---------------------------------------------------------------------------------|
G|-0--1616161616161616-14141414-1212121112-1212121212121212-11-11-11-11--11-11-11-11-|
D|-2---------------------------------------------------------------------------------|
A|-3--1414141414141414-12121212-101010-910-1010101010101010--9--9--9--9---9--9--9--9-|
E|-----------------------------------------------------------0--0--0--0---0--0--0--0-|

e|----------------------------------------------------------------------------|
B|----------------------------------------------------------------------------|
G|-16161616-1717-1919-2121-1919-1717-1616-14141414-16161616-12121212-11111111-|
D|----------------------------------------------------------------------------|
A|-14141414-1515-1717-1919-1717-1515-1414-12121212-14141414-10101010--9-9-9-9-|
E|-----------------------------------------------------------0-0-0-0--0-0-0-0-|

                                                                           2x
e|---------------------------|------------------------------------------------|
B|---------------------------|-15p12-13p12-13p12-15p12-13p12-13p12-15p12-13p12|
G|7777-99-1111-7777-1212-1111|------------------------------------------------|
D|---------------------------|------------------------------------------------|
A|5555-77--9-9-5555-1010--9-9|------------------------------------------------|
E|---------------------------|------------------------------------------------|
                                                                           2x
e|---------------------------------------------------------------------------|
B|---------------------------------------------------------------------------|
G|-1616161616161616-14141414-12121211-1212121212121212-1111-15-7-121210-910--|
D|---------------------------------------------------------------------------|
A|-1414141414141414-12121212-101010-9-1010101010101010--99--10-5-1010-9-7-9--|
E|------------------------------------------------------00-------------------|
                           15x|
e|----------|---|-------------|---------------------------------------------------------|
B|----------|---|----------89-|---------------------------------------------------------|
G|-12-9-4-2-|-12|-7797-11-7---|-1212-1212-1212-1212-99-99-99-99-44-44-44-44-22-22-22-22-|
D|-12-7-2-0-|-12|-------------|-1212-1212-1212-1212-77-77-77-77-22-22-22-22-00-00-00-00-|
A|-10-7-2-0-|-10|-------------|-1010-1010-1010-1010-77-77-77-77-22-22-22-22-00-00-00-00-|
E|-10-7-2-0-|-10|-------------|-1010-1010-1010-1010-77-77-77-77-22-22-22-22-00-00-00-00-|
           16x|                                         |                  2x
e|-5h7p5------|-5/7----5/7--8-55-10--------57-8-755-7-5-|--------------------|
B|-------87578|-7/8-87-7/8-10-77-12-12-8-7-7810-877-8-7-|--------------------|
G|------------|-----------------------------------------|-12121212-1010-1313-|
D|------------|-----------------------------------------|-12121212-1111-1414-|
A|------------|-----------------------------------------|--------------------|
E|------------|-----------------------------------------|-10101010--9-9-1212-|
                                                                          2x
e|---------------------------------------------------------------------------|
B|---------------------------------------------------------------------------|
G|---------------------------------------------------------------------------|
D|10101010-7777-10101010-7777-77-99-10101010-7777-10101010-7777-77-99-10-----|
A|-9-9-9-9-5555--9-9-9-9-5555-55-77--9-9-9-9-5555--9-9-9-9-5555-55-77--9-----|
E|---------------------------------------------------------------------------|


| /  slide up
| \  slide down
| h  hammer-on
| p  pull-off
| ~  vibrato
| +  harmonic
| x  Mute note
===============================================================================
comments
print report bad tab
I want to post or [tab]
guest
You may want to rate the tab now too:
select rating
Please do not post tabs as comments. Select "correction" instead!