Oops, an error
Loading. Please wait.

Todas As Ruas Do Amor Tab

version 1
version 1

Whole song

Interactive

3,660 views 6 this week
2 commentsread comments
1 2 3 4 5
accurate
x 5
add to favorites
launch autoscroll
font size
0
reset
how to read this tab
guitar tuner
Tab Pro tools
  • play this tab
  • loop segment
  • change instrument
  • show fretboard
  • metronome
×
Best way to learn
"Todas As Ruas Do Amor"
Autoscroll
slow
fast
+/-
esc
set tempo
stop
Contributor
Ok, so this is my first tab. I only registered here at Ultimate Guitar because I wanted 
share this awesome song! Everyone with a little knowledge in music can find out how to 
this song, but I decided to help the newbies xD

Anyway, this is a Portuguese Song, that appeared in Eurovision 2009 (btw, I am 
xD)

Intro

e|-----------3-----------------3----------------3------------------3------------|
B|--------3-----3-----------3-----3-----------3----3------------3-----3---------|
G|-----0-----------------0-----------------0-----------------0------------------|
D|------------------------------------------------------------------------------|
A|------------------------------------------------------------------------------|
E|--3-----------------3-----------------2----------------2----------------------|

e|----------3---------------3------------------3----------------2---------------|
B|-------3----3----------3----3-------------1----1------------3---3-------------|
G|-----0---------------0-----------------0-----------------2--------------------|
D|------------------------------------------------------0-----------------------|
A|-----------------------------------3------------------------------------------|
E|--0---------------0-----------------------------------------------------------|


Then its the same thing for the whole song.

The lyrics are

Se sou tinta
Tu és tela
Se sou chuva
És aguarela
Se sou sal
És branca areia
Se sou mar
És maré cheia
Se sou céu
És nuvem nele
Se sou estrela
És de encantar
Se sou noite
És luz para ela
Se sou dia
És o luar

Sou a voz
Do coração
Numa carta
Aberta ao mundo
Sou o espelho
D'emoção
Do teu olhar
Profundo
Sou um todo
Num instante
Corpo dado
Em jeito amante
Sou o tempo
Que não passa
Quando a saudade
Me abraça

Beija o mar
O vento e a lua
Sou um sol
Em neve nua
Em todas as ruas
Do amor
Serás meu
E eu serei tua

Se sou tinta
Tu és tela
Se sou chuva
És aguarela
Se sou sal
És branca areia
Se sou mar
És maré cheia
Se sou céu
És nuvem nele
Se sou estrela
És de encantar
Se sou noite
És luz para ela
Se sou dia
És o luar

Beija o mar
O vento e a lua
Sou um sol
Em neve nua
Em todas as ruas
Do amor
Serás meu
E eu serei tua
comments
print report bad tab
2 comments total.
0 reply
Stroby wrote on October 27 2009, 06:22 pm

All the right Chords but you're missing a note,
e|-----------3-----------------3--------|
B|--------3-----3-----------3-----3-----|
G|-----0----------3------0----------3---|
D|--------------------------------------|
A|--------------------------------------|
E|--3-----------------3-----------------|

that should be the first two with the extra last note like that on all of them. It also might be worth putting the chord names above the tab which are, G G F#/G F#/G E/G E/G Cadd5 D
Otherwise perfect. =)

0 reply
Thomatt wrote on June 17 2015, 02:03 pm

Thanks for the tab. I'm from Belgium, and this is my favourite Eurovision Songcontestsong.
Just started learning fingerpicking and just started learning Portuguese, so how perfect could a song be.. :)

I want to post or [tab]
guest
You may want to rate the tab now too:
select rating
Please do not post tabs as comments. Select "correction" instead!