Oops, an error
Loading. Please wait.

Climbing A Wall intro tab

by Floral
46 views 1 this week
no commentswrite comment
1 2 3 4 5
3 more votes to show rating
add to favorites
×
Save as Personal and add changes to this tab that will be seen only by you. Learn more ›
×
You can save this tab as Personal to edit and correct it or add notes. All changes will be seen only by you. Learn more »
launch autoscroll
font size
0
reset
how to read this tab
guitar tuner
edit
Autoscroll
slow
fast
+/-
esc
set tempo
stop
Author
Difficulty
Tuning: B F# B F# B F#

Yes, that is a low B.  "f" means pull off with your right hand, as in flick the string as you release it 

This will just be the first two sections. 
 
[Intro]                                     
f#|---------------------------------------------------------------------------------|
B |----------------------------------t7f0h4-----------------------------------------|
F#|----------------------t7f0t5f0----------t5/7f0h4p0t7f0h4p0--7f0------------------|
B |-------------t4/7f2p0---------h4t7------------------------h4---------------------|
F#|------t4f0h2---------------------------------------------------------------------|
B |t4f0h2---------------------------------------------------------------------------|
   ^     ^      ^                    ^
index finger                         middle finger

f#|----------------------------------t7f0h4-----------------------------------------|
B |----------------------------------------t7f0h4-----------------------------------|
F#|----------------------t7f0t5f0----------------t7f0h4--------t7f0-----------------|
B |-------------t4/7f2p0---------h4t7------------------f7f0h4/5---------------------|
F#|------t4f0h2---------------------------------------------------------------------|
B |t4f0h2---------------------------------------------------------------------------|
   ^     ^      ^                    ^
index finger                        index finger (triplets) 

f#|---------------------------------------------------------------------------------|
B |----------------------------------t7f0h4-----------------------------------------|
F#|----------------------t7f0t5f0----------t5/7f0h4p0t7f0h4p0--7f0------------------|
B |-------------t4/7f2p0---------h4t7------------------------h4---------------------|
F#|------t4f0h2---------------------------------------------------------------------|
B |t4f0h2---------------------------------------------------------------------------|
   ^     ^      ^                    ^
index finger                         middle finger

f#|----------------------------------t7f0h4-------------------------------0---------|
B |----------------------------------------t7f0h4-------------------------0---------|
F#|----------------------t7f0t5f0----------------t7f0h4-------------------0---------|
B |-------------t4/7f2p0---------h4t7------------------t7f0h4-------------0---------|
F#|------t4f0h2----------------------------------------------t7f0h4-------0---------|
B |t4f0h2----------------------------------------------------------t7f0h4-0---------|
   ^     ^      ^                    ^
index finger                        index finger (triplets, extremely fast 32nd notes) 

[Part 1]
(a)
f#|7-7-7-9-9-9-------------------------------------|
B |7-7-7-9-9-9-------------------------------------|
F#|7-7-7-9-9-9-----------------------t7f0t5f0------|
B |4-4-4-5-5-5---------------t4/7f2p0---------h4t7-|
F#|4-4-4-5-5-5---------t4f0h2----------------------|
B |4-4-4-5-5-5---t4f0h2----------------------------|

f#|7-7-7-9-9-0-------------------------------------|
B |7-7-7-9-9-0--t4f0h2--------------------t4f0-----|
F#|7-7-7-9-9-0--------t4/7f0h2p0t4f0h2p0-----------|
B |4-4-4-5-5-0--------------------------2h---------|
F#|4-4-4-5-5-0-------------------------------------|
B |4-4-4-5-5-0-------------------------------------|

f#|7-7-7-9-9-9--t12f0h7----------------------------|
B |7-7-7-9-9-9---------t9f0h5------t9--------------|
F#|7-7-7-9-9-9---------------t9f0h5----------------|
B |4-4-4-5-5-5-------------------------------------|
F#|4-4-4-5-5-5-------------------------------------|
B |4-4-4-5-5-5-------------------------------------|

f#|7-7-7-9-9-9-------------------------------------|
B |7-7-7-9-9-9-------------------------t9----------|
F#|7-7-7-9-9-9-------------------t9f0h7------------|
B |4-4-4-5-5-5-------------t9f0h7------------------|
F#|4-4-4-5-5-5-------t7f0h5------------------------|
B |4-4-4-5-5-5-t7f0h5------------------------------|

[Part 2]
f#|7-7-7-5-5-5-9-9-9---t12f0h7---------7-7-7-9-9-9-5-5-5-------------------------|
B |7-7-7-5-5-5-9-9-9----------t9f0h5---7-7-7-9-9-9-5-5-5--t4f0h2-----------------|
F#|7-7-7-5-5-5-9-9-9-------------------7-7-7-9-9-9-5-5-5--------t4/7f0h2p0-------|
B |4-4-4-2-2-2-5-5-5-------------------4-4-4-5-5-5-2-2-2-------------------------|
F#|4-4-4-2-2-2-5-5-5-------------------4-4-4-5-5-5-2-2-2-------------------------|
B |4-4-4-2-2-2-5-5-5-------------------4-4-4-5-5-5-2-2-2-------------------------|

f#|7-7-7-5-5-5-9-9-9---t12f0h7----------------|
B |7-7-7-5-5-5-9-9-9----------t9f0h5------t9--|
F#|7-7-7-5-5-5-9-9-9----------------t9f0h5----|
B |4-4-4-2-2-2-5-5-5--------------------------|
F#|4-4-4-2-2-2-5-5-5--------------------------|
B |4-4-4-2-2-2-5-5-5--------------------------|

f#|7-7-7-9-9-9-5-t12-----0~------------------------|
B |7-7-7-9-9-9-5---------0~------------------------|
F#|7-7-7-9-9-9-5---t12---0~------------------------|
B |4-4-4-5-5-5-2---------0~------------------------|
F#|4-4-4-5-5-5-2---------0~------------------------|
B |4-4-4-5-5-5-2---------0~------------------------|
                             ^
                             upstroke


************************************

| h   Hammer-on (Left hand)
| p   Pull-off (Left hand)
| t   Tapping (Right hand)
| f   Tapping (Right hand pull off)
| /   Slide up
| \   Slide down

************************************

            
            
Suggest correction
Creating personal tab
Creating personal tab
You can edit any tab online and save it as your Personal.

You can edit, replace or remove any tab part or add personal notes – all changes will be seen only by you.

Personal tabs can be accessed anytime from any device, even offline.
Learn more »
Give kudos to tab author, rate the tab!
1 2 3 4 5
comments
print report bad tab
guest
You may want to rate the tab now too:
select rating
Wanna post a correction for this tab? Suggest correction