Oops, an error
Loading. Please wait.

Ship To Wreck bass

3,232 views 18 this week
2 commentsread comments
1 2 3 4 5
x 4
add to favorites
×
Save as Personal and add changes to this tab that will be seen only by you. Learn more ›
×
You can save this tab as Personal to edit and correct it or add notes. All changes will be seen only by you. Learn more »
launch autoscroll
font size
0
reset
guitar tuner
edit
Autoscroll
slow
fast
+/-
esc
set tempo
stop
Author
[Intro]
G|-------------|-------------|-------------|-----------------|
D|-7-7—7-5-----|-------------|-------------|-----------5-----|
A|---------8---|---8-8-7--5--|----5-5------|-----------------|
E|-------------|-------------|--------8--5-|-----5--3--------|

[Verse]
G|-------------|-------------|-------------|-------------------|
D|-7-7—5-7-7---|-3-3---3-3---|-----------5-|-7-7—5-7-7-5-------|
A|-----------3-|-----3-----3-|-5-5-3-5-5---|-------------------|
E|-------------|-------------|-------------|-------------------| 4x
Don't touch the sleeping pills, they mess with my head,
Dredging the Great White Sharks, swimming in the bed,
And here comes a Killer Whale, to sing me to sleep,
Thrashing the covers off, it has me by it's teeth.

[Pre-Chorus]
G|-------------|-------------|-------------|-------------|
D|-------------|-------------|-------------|-------------|
A|-3--3-3-3-3-5|---5-5-5-5-7-|-----------8-|-8--8-8-8-8\-|
E|-------------|-------------|-5---5-5-5---|-------------| 2x

G|-------------|-------------|-------------|-------------|
D|-------------|-------------|-7---7-7-5---|-------------|
A|-3--3-3-3-3-5|---5-5-5-5-7-|-----------8-|-8---8---7---|
E|-------------|-------------|-------------|-----------8-|

G|-------------|-------------|-------------|-------------|
D|-------------|-------------|-------------|-------------|
A|-----------5-|---5-5-5-5-7-|-----------8-|-8-----------|
E|-8---8-8-8---|-------------|-5---5-5-5---|-------------|
And oh my love remind me, what was it that I said?
I can't help but pull the earth around me, to make my bed
And oh, my love remind me, what was it that I did?
Did I drink too much? Am I losing touch? Did I build this ship to wreck?

[Chorus]
G|-----------|-----------|-----------|---------------|
D|-7-7—7-5---|-----------|-----------|---------5---|
A|---------8-|-8-8-7--5--|--5-5------|---------------|
E|-----------|-----------|------8--5-|---5--3--------|
To wreck, to wreck, to wreck,
Did I build this ship to wreck?

[Verse]
What's with the long face? Do you want more?
Thousands of red-eyed mice, scratching at the door,
Don't let the curtain catch you, cause you've been here before,
The chair is an island darling, you can't touch the floor,

[Pre-Chorus]
And oh my love remind me, what was it that I said?
I can't help but pull the earth around me, to make my bed
And oh my love remind me, what was it that I did?
Did I drink too much? Am I losing touch? Did I build this ship to wreck?

[Chorus]
To wreck, to wreck, to wreck,
Did I build this ship to wreck?

[Interlude]
G|-------------|-------------|-------------|-----------------|
D|-7-7—7-5-----|-------------|-------------|-----------5---|
A|---------8---|---8-8-7--5--|----5-5------|-----------------|
E|-------------|-------------|--------8--5-|-----5--3--------| 2x

G|-------------|-------------|-------------|-------------|
D|-------------|-------------|-------------|-------------|
A|-------------|-------------|-------------|----------/8-|
E|-1---1-1-0-3-|-3---3-3-0-5-|-5---5-5-0-1-|-1----1-0----|

G|-------------|-------------|-------------|-------------|
D|-----------5-|-5---5-5---7-|-------------|-------------|
A|-8---8-8-7---|---------7---|-------------|-------------|
E|-------------|-------------|-5---5-5-5-5-|-5-----------|

And good God, under starry skies we are lost,
And into the breach we got tossed,
And the water's coming in fast!

[Pre-Chorus]
* Drop Bass
And oh my love remind me, what was it that I said?
I can't help but pull the earth around me, to make my bed

* Enter Bass
G|-------------|-------------|-------------|-------------|
D|-------------|-------------|-7---7-7-5---|-------------|
A|-3--3-3-3-3-5|---5-5-5-5-7-|-----------8-|-8---8---7---|
E|-------------|-------------|-------------|-----------8-|

G|-------------|-------------|-------------|-------------|
D|-------------|-------------|-------------|-------------|
A|-----------5-|---5-5-5-5-7-|-----------8-|-8-----------|
E|-8---8-8-8---|-------------|-5---5-5-5---|-------------|
And oh my love remind me, what was it that I did?
Did I drink too much? Am I losing touch? Did I build this ship to wreck?

[Chorus]
To wreck, to wreck, to wreck,
Did I build this ship to wreck?

[Chorus]
To wreck, to wreck, to wreck,
Did I build this ship to wreck?
Suggest correction
Creating personal tab
Creating personal tab
You can edit any tab online and save it as your Personal.

You can edit, replace or remove any tab part or add personal notes – all changes will be seen only by you.

Personal tabs can be accessed anytime from any device, even offline.
Learn more »
comments
print report bad tab
2 comments total.
0 reply
tarikaiesec 12 Feb 21, 2016 04:28 AM

Hi LeMooski,
Please can you tell if this tab is as accurate as this bass cover : https://vimeo.com/133829783
Thanks in advance

guest
You may want to rate the tab now too:
select rating
Wanna post a correction for this tab? Suggest correction