Oops, an error
Loading. Please wait.

What The Water Gave Me bass

version 1
version 1

Whole song

  • Version 1 of this bass tab is close, but there are... Show more
3,074 views 36 this week
1 commentread comment
1 2 3 4 5
x 5
add to favorites
×
Save as Personal and add changes to this tab that will be seen only by you. Learn more ›
×
You can save this tab as Personal to edit and correct it or add notes. All changes will be seen only by you. Learn more »
launch autoscroll
font size
0
reset
guitar tuner
edit
Autoscroll
slow
fast
+/-
esc
set tempo
stop
Author
Song: What The Water Gave Me
Artist: Florence + The Machine
Album: Ceremonials
Tabbed by: Patrick Gamache

Okay, so I noticed that nobody had tabbed this song out for bass yet, which
is a shame because this song has my favorite bass part on the whole album. 
This is actually a pretty easy song to play, but the fills are really fun to 
do. Enjoy!

INTRO
G|-----------------------|
D|-----------------------|
A|3------6---------------|
E|---------------4---3---|
x5

G|----------------------------------------------|
D|----------------------------------------------|
A|3------6-------8------------------------------|
E|----------------------------------------------|

G|--------------------------------|--------------------------------|
D|--------------------------------|--------------------------------|
A|8---------------6---------------|----------------6------8-------6|
E|--------8---------------6------8|4-----468---------------6-----8-|

G|--------------------------------|--------------------------------|
D|--------------------------------|------------------------5-55-55-|
A|8-8-888---------6-6--668--------|----------------6-66-668--------|
E|--------8-88-88-----8---6-6-66-8|4-44-4468-8-888-----------------|

G|-----------|
D|-----------|
A|--R-E-S-T--|
E|-----------|

G|-----------------------|
D|-----------------------|
A|3------6---------------|
E|---------------4---3---|
x3

G|----------------------------------------------|
D|----------------------------------------------|
A|3------6--------------------------------------|
E|---------------4---3---1----------------------|

G|--------------------------------|--------------------------------|
D|--------------------------------|--------------------------------|
A|/8--------------6---------------|----------------6------8------56|
E|--------8---------------6------8|4-----468---------------6----8--|

G|--------------------------------|--------------------------------|
D|--------------------------------|------------------------5-55-55-|
A|8-8-888---------6-6--668--------|----------------6-66-668--------|
E|--------8-88-88-----8---6-66-668|4-44-4468-8-888----------------1|

G|---------------------------------|
D|---------------------------------|
A|---------------------------------|
E|/6-6-6-6-6-6-6-681-1-1-1-1-1-1-1-|

G|------------------------------------------------|
D|------------------------------------------------|
A|------------------------------------------------|
E|4-4-4-4-6-6-6-6-1-1-1-1-4-4-4-4-6-6-6-6-1-1-1-1-|

G|-----------------------|
D|----------------------.|
A|3------6--------------.|
E|---------------4---3---|
x3

G|----------------------------------------------|
D|----------------------------------------------|
A|3------6--------------------------------------|
E|---------------4---3---1----------------------|

G|--------------------------------|--------------------------------|
D|--------------------------------|--------------------------------|
A|/8--------------6---------------|----------------6------8-------6|
E|--------8---------------6-------|4-----468---------------6-----8-|

G|--------------------------------|--------------------------------|
D|--------------------------------|--------------------------------|
A|8-8-888---------6-6--668--------|8-88-888------------------------|
E|--------8-88-88-----8---6-66-668|--------8-8-888-4-44-44444444444|

G|----------------|
D|----------------|
A|---------------6|
E|666666666666668-|

G|--------------------------------|--------------------------------|
D|--------------------------------|--------------------------------|
A|8-8-888---------6-6--668--------|----------------6-6--668-------6|
E|--------8-88-88-----8---6-66-668|4-44-4468-88-88-----8---6-66-68-|

G|--------------------------------|--------------------------------|
D|--------------------------------|--------------------------------|
A|8-8-888---------6-6--668--------|----------------6-66-666-66-66-6|
E|--------8-88-88-----8---6-6-66-8|4-44-4468-8-888---------------8-|

G|--------------------------------|--------------------------------|
D|--------------------------------|--------------------------------|
A|8-8-888---------6-6-66-8--------|8-8-888----------8-8-888--------|
E|--------8-88-888--------6-6-6668|--------8-88-888--------8-8-88-8|

G|--------------------------------|
D|--------------------------------|
A|6-6-66-8-------68-8-8888--------|
E|--------6-6-668---------8-88-888|
x5

G|----------------|
D|----------------|
A|6-6-66-8-------6|
E|--------6-6-668-|

G|--------------------------------|--------------------------------|
D|--------------------------------|--------------------------------|
A|8-8----8--------6-6--668--------|----------------6------8-------6|
E|--------8-88-88-----8---6-6-66-8|4---4-468-88-888--------6----68-|

G|--------------------------------|--------------------------------|
D|--------------------------------|--------------------------------|
A|8---------------6---------------|----------------6------8--------|
E|--------8---------------6-------|4------68---------------6-------|

As for the timing on the faster parts, I know it is not perfect, but I 
can guarantee that the notes are there in the right order. 

If you enjoyed it, please rate it, and feel free to post any comments or 
corrections!

            
            
Suggest correction
Creating personal tab
Creating personal tab
You can edit any tab online and save it as your Personal.

You can edit, replace or remove any tab part or add personal notes – all changes will be seen only by you.

Personal tabs can be accessed anytime from any device, even offline.
Learn more »
comments
print report bad tab
1 comment total.
+1 reply
tungp 37 Nov 05, 2013 02:29 AM

I think this is a great tab. Awesome job. =)

guest
You may want to rate the tab now too:
select rating
Wanna post a correction for this tab? Suggest correction