Oops, an error
Loading. Please wait.

What The Water Gave Me bass

version 2
version 2

Whole song

  • Version 1 of this bass tab is close, but there are... Show more
28 views 1 this week
no commentswrite comment
1 2 3 4 5
3 more votes to show rating
add to favorites
×
Save as Personal and add changes to this tab that will be seen only by you. Learn more ›
×
You can save this tab as Personal to edit and correct it or add notes. All changes will be seen only by you. Learn more »
launch autoscroll
font size
0
reset
guitar tuner
edit
Autoscroll
slow
fast
+/-
esc
set tempo
stop
Author
Difficulty
About this tab version
Version 1 of this bass tab is close, but there are a few key pieces missing. This tab also includes timing. Was this info helpful? Yes No
4/4 time.

[Intro] 0:00
G|----------------|
D|------REST------|
A|--(4 measures)--|
E|----------------|

[Verse] 0:07
G|----------------|----------------|----------------|
D|----------------|----------------|6-------5-------|  x 5
A|3---------------|6---------------|----------------|
E|----------------|----------------|----------------|
  1 + 2 + 3 + 4 +  1 + 2 + 3 + 4 +  1 + 2 + 3 + 4 +

G|----------------|----------------|----------------|----------------|
D|----------------|----------------|----------------|----------------|  
A|3---------------|6---------------|8---------------|(8)-------------|
E|----------------|----------------|----------------|----------------|
  1 + 2 + 3 + 4 +  1 + 2 + 3 + 4 +  1 + 2 + 3 + 4 +  1 + 2 + 3 + 4 +

[Chorus] 0:44
G|----------------|----------------|----------------|----------------|----------------|----------------|
D|----------------|----------------|----------------|----------------|----------------|----------------|
A|8---------------|----------------|6---------------|----------------|----------------|----------------|
E|----------------|8---------------|--------------6-|(6)---------8\--|4-----------6h8-|(8)-------------|
  1 + 2 + 3 + 4 +  1 + 2 + 3 + 4 +  1 + 2 + 3 + 4 +  1 + 2 + 3 + 4 +  1 + 2 + 3 + 4 +  1 + 2 + 3 + 4 +
                              
G|----------------|----------------|----------------|----------------|----------------|----------------|
D|----------------|----------------|----------------|----------------|----------------|----------------|
A|6-----------8---|--------------6-|8-8-8-8-8-8-8---|--------------6-|6-6-6-6h8-6---8-|----------------|
E|--------------6-|(6)---------8---|--------------8-|8-8-8-8-8-8-8---|----------------|6-6-6-6-6-6-6-8-|
  1 + 2 + 3 + 4 +  1 + 2 + 3 + 4 +  1 + 2 + 3 + 4 +  1 + 2 + 3 + 4 +  1 + 2 + 3 + 4 +  1 + 2 + 3 + 4 +

G|----------------|----------------|----------------|------------------------|----------------|
D|----------------|----------------|----------------|------------------------|----------------|
A|----------------|--------------6-|6-6-6-6-6-6-6/8/|10----10-10-10-10-10-10-|----------------|
E|4-4-4-4-4-4-4/6h|8-8-8-8-8-8-8---|----------------|------------------------|----------------|
  1 + 2 + 3 + 4 +  1 + 2 + 3 + 4 +  1 + 2 + 3 + 4 +  1  +  2  +  3  +  4  +   1 + 2 + 3 + 4 +

[Verse] 1:17
G|----------------|----------------|----------------|----------------|----------------|----------------|
D|----------------|----------------|----------------|----------------|----------------|----------------|
A|3---------------|6---------------|----------------|3---------------|6---------------|--------------1h|
E|----------------|----------------|4-------3-------|----------------|----------------|4-------3-------|
  1 + 2 + 3 + 4 +  1 + 2 + 3 + 4 +  1 + 2 + 3 + 4 +  1 + 2 + 3 + 4 +  1 + 2 + 3 + 4 +  1 + 2 + 3 + 4 +

G|----------------|----------------|----------------|----------------|----------------|----------------|
D|----------------|----------------|----------------|----------------|----------------|----------------|
A|3---------------|6---------------|----------------|3---------------|6---------------|----------------|
E|----------------|----------------|4-------3-------|----------------|----------------|4-4-4-4-3-3-3-3-|
  1 + 2 + 3 + 4 +  1 + 2 + 3 + 4 +  1 + 2 + 3 + 4 +  1 + 2 + 3 + 4 +  1 + 2 + 3 + 4 +  1 + 2 + 3 + 4 +

G|----------------|----------------|
D|----------------|----------------|
A|----------------|----------------|
E|1-1-1-1-1-1-1-1-|1-1-1-1-1-1-1-1-|
  1 + 2 + 3 + 4 +  1 + 2 + 3 + 4 +

[Chorus] 1:45 
G|----------------|----------------|----------------|----------------|----------------|----------------|
D|----------------|----------------|----------------|----------------|----------------|----------------|
A|8---------------|----------------|6---------------|----------------|----------------|----------------|
E|----------------|8---------------|--------------6-|(6)---------8\--|4-----------6h8-|(8)-------------|
  1 + 2 + 3 + 4 +  1 + 2 + 3 + 4 +  1 + 2 + 3 + 4 +  1 + 2 + 3 + 4 +  1 + 2 + 3 + 4 +  1 + 2 + 3 + 4 +
                              
G|----------------|----------------|----------------|----------------|----------------|----------------|
D|----------------|----------------|----------------|----------------|----------------|----------------|
A|6-----------8---|--------------6-|8-8-8-8-8-8-8---|--------------6-|6-6-6-6h8-6-6-6-|----------------|
E|--------------6-|(6)---------8---|--------------8-|8-8-8-8-8-8-8---|----------------|6-6-6-6-6-6-6-8-|
  1 + 2 + 3 + 4 +  1 + 2 + 3 + 4 +  1 + 2 + 3 + 4 +  1 + 2 + 3 + 4 +  1 + 2 + 3 + 4 +  1 + 2 + 3 + 4 +

G|----------------|----------------|----------------|------------------------|
D|----------------|----------------|----------------|------------------------|
A|----------------|--------------6-|6-6-6-6-6-6-6/8/|10----10-10-10-10-10-10-|
E|4-4-4-4-4-4-4/6h|8-8-8-8-8-8-8---|----------------|------------------------|
  1 + 2 + 3 + 4 +  1 + 2 + 3 + 4 +  1 + 2 + 3 + 4 +  1  +  2  +  3  +  4  +   

[Bridge] 2:15
G|----------------|----------------|----------------|----------------|----------------|
D|----------------|----------------|----------------|----------------|------REST------|
A|----------------|--------------6-|----------------|----------------|--(6 measures)--|
E|6-6-6-6-6-6-6-6-|6-6-6-6-6-6-8---|1-1-1-1-1-1-1-1-|1-1-1-1-1-1-1-1-|----------------|
  1 + 2 + 3 + 4 +  1 + 2 + 3 + 4 +  1 + 2 + 3 + 4 +  1 + 2 + 3 + 4 +  

[Verse] 2:34
G|----------------|----------------|----------------|----------------|----------------|----------------|
D|----------------|----------------|6-------5-------|----------------|----------------|6-------5-------|  
A|3---------------|6---------------|----------------|3---------------|6---------------|----------------|
E|----------------|----------------|----------------|----------------|----------------|----------------|
  1 + 2 + 3 + 4 +  1 + 2 + 3 + 4 +  1 + 2 + 3 + 4 +  1 + 2 + 3 + 4 +  1 + 2 + 3 + 4 +  1 + 2 + 3 + 4 +

G|----------------|----------------|----------------|----------------|----------------|
D|----------------|----------------|6-6-6-6-5-5-5-5-|3-3-3-3-3-3-3-3-|3-3-3-3-3-3-3-3-|  
A|3-3-3-3-3-3-3-3-|6-6-6-6-6-6-6-6-|----------------|----------------|----------------|
E|----------------|----------------|----------------|----------------|----------------|
  1 + 2 + 3 + 4 +  1 + 2 + 3 + 4 +  1 + 2 + 3 + 4 +  1 + 2 + 3 + 4 +  1 + 2 + 3 + 4 +

[Chorus] 2:56
G|----------------|----------------|----------------|----------------|----------------|----------------|
D|----------------|----------------|----------------|----------------|----------------|----------------|
A|8---------------|----------------|6---------------|----------------|----------------|----------------|
E|----------------|8---------------|----------------|6---------------|4---------4-6h8-|(8)-------------|
  1 + 2 + 3 + 4 +  1 + 2 + 3 + 4 +  1 + 2 + 3 + 4 +  1 + 2 + 3 + 4 +  1 + 2 + 3 + 4 +  1 + 2 + 3 + 4 + 

G|----------------|----------------|----------------|----------------|----------------|----------------|
D|----------------|----------------|----------------|----------------|----------------|----------------|
A|6-----------8---|--------------6-|8-8-8-8-8-8-8---|--------------6-|6-6-6-6h8-6---8-|----------------|
E|--------------6-|(6)---------8---|--------------8-|8-8-8-8-8-8-8---|----------------|6-6-6-6-6-6-6-8-|
  1 + 2 + 3 + 4 +  1 + 2 + 3 + 4 +  1 + 2 + 3 + 4 +  1 + 2 + 3 + 4 +  1 + 2 + 3 + 4 +  1 + 2 + 3 + 4 +

G|----------------|----------------|----------------|----------------|----------------|----------------|
D|----------------|----------------|----------------|----------------|----------------|----------------|
A|8-8-8-8-8-8-8---|----------------|----------------|----------------|----------------|--------------6-|
E|--------------8-|8-8-8-8-8-8-8-8\|4-4-4-4-4-4-4-4-|4-4-4-4-4-4-4-4-|6-6-6-6-6-6-6-6-|6-6-6-6-6-6-8---|
  1 + 2 + 3 + 4 +  1 + 2 + 3 + 4 +  1 + 2 + 3 + 4 +  1 + 2 + 3 + 4 +  1 + 2 + 3 + 4 +  1 + 2 + 3 + 4 +

G|----------------|----------------|----------------|----------------|----------------|----------------|
D|----------------|----------------|----------------|----------------|----------------|----------------|
A|8-8-8-8-8-8-8---|--------------6-|6-6-6-6h8-6-6-8-|----------------|----------------|--------------6-|
E|--------------8-|8-8-8-8-8-8-8---|----------------|6-6-6-6-6-6-6-8-|4-4-4-4-4-4-4/6h|8-8-8-8-8-8-8---|
  1 + 2 + 3 + 4 +  1 + 2 + 3 + 4 +  1 + 2 + 3 + 4 +  1 + 2 + 3 + 4 +  1 + 2 + 3 + 4 +  1 + 2 + 3 + 4 +

G|----------------|----------------|----------------|----------------|----------------|----------------|
D|----------------|----------------|----------------|----------------|----------------|----------------|
A|6-6-6-6-6-6-6-8-|--------------6-|8-8-8-8-8-8-8---|--------------6-|6-6-6-6h8-6-6-8-|----------------|
E|----------------|6-6-6-6-6-6-8---|--------------8-|8-8-8-8-8-8-8---|----------------|6-6-6-6-6-6-6-8-|
  1 + 2 + 3 + 4 +  1 + 2 + 3 + 4 +  1 + 2 + 3 + 4 +  1 + 2 + 3 + 4 +  1 + 2 + 3 + 4 +  1 + 2 + 3 + 4 +

G|----------------|----------------|----------------|----------------|
D|----------------|----------------|----------------|----------------|
A|----------------|--------------6-|6-6-6-6-6-6-6-6-|6-6-6-6-6-6---6-|
E|4-4-4-4-4-4-4/6h|8-8-8-8-8-8-8---|----------------|------------8---|
  1 + 2 + 3 + 4 +  1 + 2 + 3 + 4 +  1 + 2 + 3 + 4 +  1 + 2 + 3 + 4 +

[Outro]4:02
G|----------------|----------------|----------------|----------------|----------------|----------------|
D|----------------|----------------|----------------|----------------|----------------|----------------|
A|8-8-8-8-8-8-8---|----------------|6-6-6-6-6-6-6-8-|--------------6-|8-8-8-8-8-8-8---|----------------|
E|--------------8-|8-8-8-8-8-8-8-8-|----------------|6-6-6-6-6-6-8---|--------------8-|8-8-8-8-8-8-8-8-|
  1 + 2 + 3 + 4 +  1 + 2 + 3 + 4 +  1 + 2 + 3 + 4 +  1 + 2 + 3 + 4 +  1 + 2 + 3 + 4 +  1 + 2 + 3 + 4 +

G|----------------|----------------|----------------|----------------|
D|----------------|----------------|----------------|----------------| x 5
A|8-8-8-8-8-8-8---|--------------6-|6-6-6-6-6-6-6-8-|--------------6-|
E|--------------8-|8-8-8-8-8-8-8---|----------------|6-6-6-6-6-6-8---|
  1 + 2 + 3 + 4 +  1 + 2 + 3 + 4 +  1 + 2 + 3 + 4 +  1 + 2 + 3 + 4 +

   [Softer] 4:52
G|----------------|----------------|----------------|----------------|----------------|----------------|
D|----------------|----------------|----------------|----------------|----------------|----------------|
A|8-8-8-8-8-8-8---|--------------6-|6-6-6-6h8-6-6-8-|----------------|----------------|----------------|
E|--------------8-|8-8-8-8-8-8-8---|----------------|6-6-6-6-6-6-6-8-|4-4-4-4-4-4-4/6h|8-8-8-8-8-8-8-8-|
  1 + 2 + 3 + 4 +  1 + 2 + 3 + 4 +  1 + 2 + 3 + 4 +  1 + 2 + 3 + 4 +  1 + 2 + 3 + 4 +  1 + 2 + 3 + 4 +

G|----------------|----------------|----------------|----------------|----------------|----------------|
D|----------------|----------------|----------------|----------------|----------------|----------------|
A|6-6-6-6h8-6-6-8-|--------------6-|8---------------|----------------|6---------------|----------------|
E|----------------|6-6-6-6-6-6-8---|----------------|8---------------|--------------6-|(6)-------------|
  1 + 2 + 3 + 4 +  1 + 2 + 3 + 4 +  1 + 2 + 3 + 4 +  1 + 2 + 3 + 4 +  1 + 2 + 3 + 4 +  1 + 2 + 3 + 4 +

G|----------------|----------------|----------------|----------------|
D|----------------|----------------|----------------|----------------|
A|----------------|----------------|6-----------8---|----------------|
E|4-----------6h8-|(8)-------------|--------------6-|(6)-------------|
  1 + 2 + 3 + 4 +  1 + 2 + 3 + 4 +  1 + 2 + 3 + 4 +  1 + 2 + 3 + 4 +


************************************

| (n)  Ghost note
| h    Hammer-on
| \    Slide down
| /    Slide up

************************************

            
            
Suggest correction
Creating personal tab
Creating personal tab
You can edit any tab online and save it as your Personal.

You can edit, replace or remove any tab part or add personal notes – all changes will be seen only by you.

Personal tabs can be accessed anytime from any device, even offline.
Learn more »
Give kudos to tab author, rate the tab!
1 2 3 4 5
comments
print report bad tab
guest
You may want to rate the tab now too:
select rating
Wanna post a correction for this tab? Suggest correction