Oops, an error
Loading. Please wait.

Hold Me Down Tab

973 views 1 this week
1 commentread comment
1 2 3 4 5
please rate
add to favorites
launch autoscroll
font size
0
reset
how to read this tab
guitar tuner
Autoscroll
slow
fast
+/-
esc
set tempo
stop
Help us to improve Ultimate-Guitar.com Take our survey!
×
Contributor
Difficulty
djs488 75
intermediate
http://www.florezmusic.com/main.php

“Hold Me Down” - Find Yourself
Florez
By: David Stanard
02/11/06


INTRO and VERSE

	Dm7                   Dm7
E---------------------------------------------------|
G------6---5--5-5h6p5--8~------6---5--5-5h7p5--8~---|
B-----5----5--5-5-------------5----5--5-5-----------|
D----7-----7-----------------7-----7----------------|
A---5------5----------------5------5----------------|
E--------------------------5------------------------|

	Am			  Am
E-------5-----------------------5---------------------------------|
G--------------------5~---------------------5---------------------|
B----------5--5h7p5----------------5--5h7p5----/7-7-5---5h7-------|
D-----7----------------------7------------------------7-----------|
A----7----------------------7-------------------------------------|
E---5--------------------3-5--------------------------------------|


Little riff in verse:
E---8p5-------5-----|
G-------5--8--------|
B-------------------|
D-------------------|
A-------------------|
E-------------------|

Lead into prechorus:  G

PRE CHORUS:
F#  G   Am  C  Dm
F#  G   Am  C  D
E   Am  G   C
F#  E

E---------------------------------------------|
G-----(with piano playing octave lower)-------|
B-------------7--9--10------------------------|
D---7--9--10----------------------------------|
A---------------------------------------------|
E---------------------------------------------|

VERSE

PRE CHORUS

CHORUS:
Am  G  C  E

Then F# E

Solo:

E-----8----7--5------------------------8----7--5-----------------------|
G----x----x-----6~--------------------x----x-----6~--------------------|
B---x----x----------9p7h9/10-9h10p9--x----x----------9p6h9/10-9h10p9---|
D----------------------------------------------------------------------|
A----------------------------------------------------------------------|
E----------------------------------------------------------------------|


E----------------------------------------------------------------------|
G----------------------------------------------8-8---------------------|
B--/9-9----------------/9-9----------------7/9-------------------------|
D-------/12--10-------------/12--10----------------/12--10-------------|
A---------------12-10---------------12-10------------------12-10-------|
E----------------------------------------------------------------------|


E-------------------------------------------------------------------------|
G-----10p8----------------------------------------------------------------|
B—7/9------9-7/9-7\5---(5h)7p5--------------/14~--14-14-14-14p12----12-14-|
D--------------------7---------7----/12-10-----------------------14-------|
A-------------------------------------------------------------------------|
E-------------------------------------------------------------------------|


E---------------------------12-15p12h15-------------------10---------|
G--13-15b16r15p13-----13h15--------------15-15\13-10h13p10----13-10--|
B-----------------14-------------------------------------------------|
D--------------------------------------------------------------------|
A--------------------------------------------------------------------|
E--------------------------------------------------------------------|


E-----------------12-12-12-12-12-12--/17-15------------10h12-12-12p10----|
G-10-13-10-15-10--10-10-13-10-15-10----------15p13\10-----------------13-|
B------------------------------------------------------------------------|
D------------------------------------------------------------------------|
A------------------------------------------------------------------------|
E------------------------------------------------------------------------|


E-10h12-12-12p10-------19-17----19-17----19-17----19-17----19-17---|
G----------------13----------18-------18-------18-------18---------|
B------------------------------------------------------------------|
D------------------------------------------------------------------|
A------------------------------------------------------------------|
E------------------------------------------------------------------|


E-----19p17----19p17----19p17----19p17----19p17----19p17----19p17--------|
G--18-------18-------18-------18-------18-------18-------18-------18-----|
B------------------------------------------------------------------------|
D------------------------------------------------------------------------|
A------------------------------------------------------------------------|
E------------------------------------------------------------------------|


E--12--12-12h13p12-11-12--------12-------------------------------|
G-------------------------13-13----13-12h13---10-10h13p10----10--|
B---------------------------------------------------------12-----|
D----------------------------------------------------------------|
A----------------------------------------------------------------|
E----------------------------------------------------------------|

Whole band plays--> C           C           C          C           C
E-----------------------------------------------------------------------|
G—5h7p5-------------*-----------*-----------*-----------*-----------*---|
B-------7-7h8p7p5---5—7h8p7p5---5-7h8p7p5---5-7h8p7p5---5-7h8p7p5---5---|
D-----------------7-*---------7-*---------7-*---------7-*---------7-*---|
A-----------------------------------------------------------------------|
E-----------------------------------------------------------------------|

             C           C           C           C
E------------------------------------------------------------------------|
G—-----------*-----------*-----------*-----------*-----------------10----|
B—7h8p7p5---5—7h8p7p5---5-7h8p7p5---5-7h8p7p5---5-7h8p7p5---5/7h9--------|
D----------7-*---------7-*---------7-*---------7-*---------7-------------|
A------------------------------------------------------------------------|
E------------------------------------------------------------------------|


E-------/10---------------------------------------------------------------|
G—---10------13p10----13—8p5----------------------------------------------|
B--9---------------12--------7—7b8r7p5---5---5----------------------------|
D--------------------------------------7---7------------------------------|
A------------------------------------------------------------------/7-7-7-|
E------------------------------------------------5-5-5-7-7-7-8-8-8--------|

CHORUS x2
Suggest correction new What's this?
You can suggest a correction to this tab. Community and Mods will review your correction and vote to approve or reject it.
comments
We did not receive enough feedback on this tab! Please rate:
print report bad tab
1 2 3 4 5
1 comment total.
0 reply
djs488 75 wrote on February 27 2006, 08:45 pm

woops, all the F#s should be F's, my fault.

I want to post or [tab]
guest
You may want to rate the tab now too:
select rating
Please do not post tabs as comments. Select "correction" instead!