Oops, an error
Loading. Please wait.

Flores Amarillas tab

version 2
version 2

Whole song

23 views 1 this week
no commentswrite comment
1 2 3 4 5
3 more votes to show rating
add to favorites
×
Save as Personal and add changes to this tab that will be seen only by you. Learn more ›
×
You can save this tab as Personal to edit and correct it or add notes. All changes will be seen only by you. Learn more »
launch autoscroll
font size
0
reset
how to read this tab
guitar tuner
edit
Autoscroll
slow
fast
+/-
esc
set tempo
stop
Hola, saqué la canción porque unas amigas me la pidieron,
Esta canción suena igual que la del disco con unos pequeños
arreglitos que le hize, espero que esté bien y cualquier cosa
me escriben....     SANTA CRUZ-BOLIVIA

 INTRO 
  F#         D#m        G#m          C#
e)--6v----------------------------------------
b)-------9-7-6b---------7v--6-----------------
g)---------------8v------------9-6-7b--6v-----
d)--------------------------------------------
a)--------------------------------------------
E)--------------------------------------------


 riff1        riff2 

e)5s6---4s2-4s6---|---5s6-4-2-2--|
b)6s7---5s3-5s7---|---6s7-5-3-2--|
g)----------------|--------------|
d)----------------|--------------|
a)----------------|--------------|
E)----------------|--------------|

 F#                                      D#m
Ã?l la estaba esperando con una flor amarilla
G#m                                        C#    riff1
Ella lo estaba soñando con la luz en su pupila
F#                                       D#m
Y el amarillo de el sol iluminaba la esquina ( la esquina)
G#m                                     C#  C#7   riff2
Lo sentía tan cercano, lo sentía desde niña


  CORO 
        F#                         A#m
Ella sabía que él sabía que algún día pasaría,
         C#m                    F#7       B    B9/7
Que vendría a buscarla con sus flores amarillas,
        G#m                      C#
No te apures, no detengas el instante del encuentro,
      A#m                          D#m
está dicho que es un hecho, no la pierdas, no hay derecho,
         G#m          B
No te olvides que la vida
      G#m     B      C#  C#7   riff2
Casi nunca está dormida


 INTRO 

  F#         D#m        G#m          C#
e)--6v----------------------------------------
b)-------9-7-6b---------7v--6-----------------
g)---------------8v------------9-6-7b--6v-----
d)--------------------------------------------
a)--------------------------------------------
E)--------------------------------------------


F#                                          D#m
En ese bar tan desierto los esperaba el encuentro (el encuentro)
G#m                                     C#      riff1
Ella llegó en limosina, amarilla por supuesto
F#                                         D#m
Ã?l se acercó de repente y la miró tan de frente (de frente)
G#m                                   C#  C#7  riff2
Toda una vida soñada y no pudo decir nada

 CORO .......

 SOLO 
        F#        A#m       C#m      F#7       B
e)------------------------------6h7s(6)-6-7-9-6s-2v---2-4-6s7-
b)-----/11v--11s-6v---11s-5v----------------------------------
g)-9s11-------------------------------------------------------
d)------------------------------------------------------------
a)------------------------------------------------------------
E)------------------------------------------------------------

     G#m        C#m     C#7
e)-6-7-7s9---6-7s9-7-6-6h7-6b-
b)----------------------------
g)----------------------------
d)----------------------------
a)----------------------------
E)----------------------------

 CORO .......

        F#                 B
Ella sabía, él sabía, él sabía, ella sabía
        F#                       B             C#     B     F#
Y él sabía, ella sabía y se olvidaron de sus flores amarillas


B9/7: X24424   (B con dedo chico en la 1º cuerda)

            
            
Suggest correction
Creating personal tab
Creating personal tab
You can edit any tab online and save it as your Personal.

You can edit, replace or remove any tab part or add personal notes – all changes will be seen only by you.

Personal tabs can be accessed anytime from any device, even offline.
Learn more »
Give kudos to tab author, rate the tab!
1 2 3 4 5
comments
print report bad tab
guest
Wanna post a correction for this tab? Suggest correction