Oops, an error
Loading. Please wait.

Backwoods Beauty Queen Tab

1,395 views 3 this week
no commentswrite comment
1 2 3 4 5
please rate
add to favorites
launch autoscroll
font size
0
reset
how to read this tab
guitar tuner
Autoscroll
slow
fast
+/-
esc
set tempo
stop
Help us to improve Ultimate-Guitar.com Take our survey!
×
Contributor
Difficulty
novice
Florida-Georgia Line "Backwoods Beauty Queen"

e|-1-3-1--------------------1-3-1-------------------|
B|-------4-1---1br-------1--------4-1---1br---------|
G|-----------0-----3-0-3--------------0-----3-0-3-0-|
D|--------------------------------------------------|
A|--------------------------------------------------|

E|--------------------------------------------------|
e|-1-3-1--------------------1-3-1-------------------|
B|-------4-1---1br-------1--------4-1---1br---------|
G|-----------0-----3-0-3--------------0-----3-0-3-0-|
D|--------------------------------------------------|
A|--------------------------------------------------|
E|--------------------------------------------------|

e|-1-3-1--------------------------1-|
B|-------4-1---1br----------------1-|
G|-----------0-----3-0-3--0-------2-|
D|--------------------------3-1-3-3-|
A|--------------------------------3-|
E|--------------------------------1-|
(verse)
Cm                            (finger pick)Cm        Ab
Daddy thinks his brown eyed girl is an angel
       Cm                  Ab              Bb        Ab
She's got a wild side but covers it up so well..
(plectrum)C                   Bb
She knows how to party, gets a little naughty
Ab                       Bb
Spent a couple nights in jail
        Cm                         Bb                     Ab             Bb
And it really turns her on when I let her get behind the wheel..

(chorus)
       Cm                  Ab
We go deep down in the woods
Bb                         Ab
Make a little love on the truck hood
Cm            Ab             Bb                        Ab
And she might be the one to turn a church boy into the devils son
      Cm         Ab           Bb                            Ab
And.. I'm ready, she's ready..feelin' like a dream but you know I'm really livin'
Bb                           Ab                                Cm
This could be the death of me..she's a backwoods beauty queen!

(instrumental)
e|-1-3-1--------------------1-3-1-------------------|
B|-------4-1---1br-------1--------4-1---1br---------|
G|-----------0-----3-0-3--------------0-----3-0-3-0-|
D|--------------------------------------------------|
A|--------------------------------------------------|

E|--------------------------------------------------|
e|-1-3-1--------------------1-3-1-------------------|
B|-------4-1---1br-------1--------4-1---1br-------1-|
G|-----------0-----3-0-3--------------0-----3-0-3---|
D|--------------------------------------------------|
A|--------------------------------------------------|
E|--------------------------------------------------|

(verse)
Cm                                                       Bb          Ab
She's gotta look that'll kill and legs that should be a crime
        Cm                                            Bb          Ab
She's a six pack girl you can throw away a bottle of wine
           Cm                                               Bb                     Ab
She's got holes in her clothes cuz anything goes when she's ridin' in my fourwheel drive
         Cm                                          Bb           Ab
And this small town's dead but she's never felt more alive!


(chorus)
       Cm                  Ab
We go deep down in the woods
Bb                         Ab
Make a little love on the truck hood
Cm            Ab             Bb                        Ab
And she might be the one to turn a church boy into the devils son
      Cm         Ab           Bb                            Ab
And.. I'm ready, she's ready..feelin' like a dream but you know I'm really livin'
Bb                           Ab                                Cm
This could be the death of me..she's a backwoods beauty queen!

(instrumental)
Cm F Cm, Cm F Cm, Cm F Cm, Cm F Cm
(bridge)
Bb               Ab                    Cm
All of the fellas..they stay jealous
Cm              Ab                   Bb
When I call her mine, oh mine...
Bb                            Ab                                     Cm
This girl is one of a kind...ain't afraid to have a hell of a time
Cm                                         Ab
I ain't sayin' she ain't gotta good side
Ab                                     Cm  Ab  Bb
But I'm prayin' I don't see it tonight yeaah!!

(instrumental)
Cm  Ab  Bb  Ab


(chorus)
       Cm         (finger pick)Ab
We go deep down in the woods
Bb                         Ab
Make a little love on the truck hood
Cm            Ab    (plectrum)Bb                        Ab
And she might be the one to turn a church boy into the devils son
      Cm         Ab           Bb                            Ab
And.. I'm ready, she's ready..feelin' like a dream but you know I'm really livin'
Bb                           Ab               Bb                        F Cm Bb Ab Cm
This could be the death of me..oooh yeah this girl has got the best of me...
Bb                           Ab                                Cm  Ab  Bb  Ab
This could be the death of me..she's a backwoods beauty queen!
                       Cm Ab Bb Ab, Cm Ab Bb Ab, Cm Ab Bb Ab   Cm
Backwoods beauty queen!
Suggest correction What's this?
You can suggest a correction to this tab. Community and Mods will review your correction and vote to approve or reject it.
comments
We did not receive enough feedback on this tab! Please rate:
print report bad tab
1 2 3 4 5
I want to post or [tab]
guest
You may want to rate the tab now too:
select rating
Please do not post tabs as comments. Select "correction" instead!