Oops, an error
Loading. Please wait.

Confession Tab

163 views 12 this week
no commentswrite comment
1 2 3 4 5
3 more votes to show rating
add to favorites
launch autoscroll
font size
0
reset
how to read this tab
guitar tuner
Autoscroll
slow
fast
+/-
esc
set tempo
stop
Help us to improve Ultimate-Guitar.com Take our survey!
×
Author
Difficulty
Capo
intermediate
1st fret
About this tab version
Wrote tabs relative to capo 1. Was this info helpful? Yes No
song: Confession
album: Anything Goes
artist: Florida Georgia Line
year: 2014

*note all chords and tabs relative to capo 1


Capo 1

chords played through intro are 
C G Am F

e|-3-5-3-5------3-3-5-3-5-----|
B|--------5--3-5---------5-3--|
G|--------------------------5-|
D|----------------------------|
A|----------------------------|
E|----------------------------|


Bass part is

e|-------------------------------------|
B|-------------------------------------|
G|-5-5-5-------------------------------|
D|-5-5-5--5-5-5-5-5--7-7-7--3-3-3-3-3--|
A|-3-3-3--5-5-5-5-5--7-7-7--3-3-3-3-3--|
E|--------3-3-3-3-3--5-5-5--1-1-1-1-1--|

played twice through intro



Suggest correction
Give kudos to tab author, rate the tab!
1 2 3 4 5
comments
print report bad tab
guest
You may want to rate the tab now too:
select rating
Wanna post a correction for this tab? Suggest correction