Oops, an error
Loading. Please wait.

Holy intro tab

version 2
version 2

Intro

  • Contains more double notes that can be heard on the recording.

Interactive

5,830 views 18 this week
4 commentsread comments
1 2 3 4 5
x 19
add to favorites
×
Save as Personal and add changes to this tab that will be seen only by you. Learn more ›
×
You can save this tab as Personal to edit and correct it or add notes. All changes will be seen only by you. Learn more »
launch autoscroll
font size
0
reset
how to read this tab
guitar tuner
edit
Autoscroll
slow
fast
+/-
esc
set tempo
stop
e|---------------------------------------------------------------------------|
B|-------------------3---3-----------------------------3---3-----------------|
G|--0---0----0h2---4-----2h4----0--------------------0-----2h4----2---0------|
D|----0---0-------------------0---0---2/4--5--4--0h2-------------------------|
A|--------------------------------------------------------------3------------|
E|---------------------------------------------------------------------------|

e|---------------------------------------------------------------------------|
B|----------3---3------------------------------------------------------------|
G|------0-------2h4-----2---0------------------------------------------------|
D|---2--------------0--------------------------------------------------------|
A|---------------------------------------------------------------------------|
E|-----------------------------*3--------------------------------------------|



************************************

| h  Hammer-on
| /  Slide up
| *  Quiet strum

************************************

            
            
Suggest correction
Creating personal tab
Creating personal tab
You can edit any tab online and save it as your Personal.

You can edit, replace or remove any tab part or add personal notes – all changes will be seen only by you.

Personal tabs can be accessed anytime from any device, even offline.
Learn more »
comments
print report bad tab
4 comments total. Showing first comments.
0 reply
rebekahb1 10 May 19, 2016 01:35 PM

This is a good version of the intro it actually sounds right when played with the song. Good Job!!

0 reply
MichaelJArnold 192 Jun 08, 2016 11:25 AM

Thank you! This is perfect!

0 reply
Lilwoo 10 Jul 29, 2016 09:33 AM

really appreciate it! this tab helps me a lot! Obsessed with playing this intro now!

guest
You may want to rate the tab now too:
select rating
Wanna post a correction for this tab? Suggest correction