Oops, an error
Loading. Please wait.

Smooth Tab

61 views 3 this week
no commentswrite comment
1 2 3 4 5
3 more votes to show rating
add to favorites
launch autoscroll
font size
0
reset
how to read this tab
guitar tuner
Autoscroll
slow
fast
+/-
esc
set tempo
stop
Help us to improve Ultimate-Guitar.com Take our survey!
×
Author
Difficulty
Tuning
novice
D# G# C# F# A# D#
About this tab version
This is a simple riff tabbed to be played and sung along to. Was this info helpful? Yes No
"Smooth"
Florida Georgia Line
Dig Your Roots (2016)


[Intro]

     G
D#|-------------------------------------|-------------------------------------|
A#|-------------------------------------|-----------------------------0-------|
F#|-----------0----------------0-----0--|------------0------------------------| x2
C#|-----0h2-----------2p0----------0----|------0h2-----------2p0--------------|
G#|-------------------------------------|-------------------------------------|
D#|--3-----------3----------3-----------|--3------------3----------3----------|


[Verse 1]

     G
D#|-------------------------------------|-------------------------------------|
A#|-------------------------------------|-----------------------------0-------|
F#|-----------0----------------0-----0--|------------0------------------------|
C#|-----0h2-----------2p0----------0----|------0h2-----------2p0--------------|
G#|-------------------------------------|-------------------------------------|
D#|--3-----------3----------3-----------|--3------------3----------3----------|
     Smooth, like a Tennessee Walker, just a walking on the water, you're
     Smooth, like a Sunday morning Elvis, singing gospel, it's a hell of a

     C                                     D               C
D#|-------------------------------------|-------------------------------------|
A#|--------------------3-----1----------|--3---------------1------------------|
F#|------------0-------------------0----|--2---------------0------------------|
C#|------0h2----------------------------|--0---------------2------------------|
G#|--3------------3---------------------|------------------3------------------|
D#|-------------------------------------|-------------------------------------|
       Groove                     Like the lines on her Mercury,
                                             girl you're put together perfectly

[Chorus]

     G
D#|-------------------------------------|-------------------------------------|
A#|-------------------------------------|-----------------------------0-------|
F#|-----------0----------------0-----0--|------------0------------------------|
C#|-----0h2-----------2p0----------0----|------0h2-----------2p0--------------|
G#|-------------------------------------|-------------------------------------|
D#|--3-----------3----------3-----------|--3------------3----------3----------|
   Good lord almighty, girl, you go down good
   You ain't even trying, 'cause you wrote the book
   There ain't nobody do me like you
   The way you move that body, girl, you're so smooth


[Verse 2]

     G
D#|-------------------------------------|-------------------------------------|
A#|-------------------------------------|-----------------------------0-------|
F#|-----------0----------------0-----0--|------------0------------------------|
C#|-----0h2-----------2p0----------0----|------0h2-----------2p0--------------|
G#|-------------------------------------|-------------------------------------|
D#|--3-----------3----------3-----------|--3------------3----------3----------|
   Like cat daddy driving a caddy from cali baby, you're smooth
   Like young love buzzing off an old can bottle by the

     C                                     D               C
D#|-------------------------------------|-------------------------------------|
A#|--------------------3-----1----------|--3---------------1------------------|
F#|------------0-------------------0----|--2---------------0------------------|
C#|------0h2----------------------------|--0---------------2------------------|
G#|--3------------3---------------------|------------------3------------------|
D#|-------------------------------------|-------------------------------------|
      Moon                        Blackberry jam, finger-licking off your hand 
                                                    flying out the window

[Chorus]

     G
D#|-------------------------------------|-------------------------------------|
A#|-------------------------------------|-----------------------------0-------|
F#|-----------0----------------0-----0--|------------0------------------------|
C#|-----0h2-----------2p0----------0----|------0h2-----------2p0--------------|
G#|-------------------------------------|-------------------------------------|
D#|--3-----------3----------3-----------|--3------------3----------3----------|
   Good lord almighty, girl, you go down good
   You ain't even trying, 'cause you wrote the book
   There ain't nobody do me like you

     G
D#|-------------------------------------|-------------------------------------|
A#|-------------------------------------|-------------------------------------|
F#|-----------0----------------0-----0--|-----------0----------------0-----0--|
C#|-----0h2-----------2p0----------0----|-----0h2----------2p0-----------0----|
G#|-------------------------------------|-------------------------------------|
D#|--3-----------3----------3-----------|--3-----------3----------3-----------|
   The way you move that body, girl, you're so smooth


[Bridge]

     G
D#|-------------------------------------|-------------------------------------|
A#|----------------------------0--------|-------------------------------------|
F#|-----------0----------------------0--|------------0----------------0----0--|
C#|-----0h2-----------2p0----------0----|------0h2-----------2p0---------0----|
G#|-------------------------------------|-------------------------------------|
D#|--3-----------3----------3-----------|--3------------3----------3----------|
                                               Smooth
                                               Smooth                 You're a

     C
D#|-------------------------------------|-------------------------------------|
A#|-------------3----1------------------|-------------------------------------|
F#|----------0------------0-------------|-------------------------------------|
C#|-----2-------------------------------|-------------------------------------|
G#|--3----------------------------------|-------------------------------------|
D#|-------------------------------------|-------------------------------------|
     Stroke on the canvas, a brick road to Kansas, my little summertime jam


[Chorus]

     G
D#|-------------------------------------|-------------------------------------|
A#|-------------------------------------|-----------------------------0-------|
F#|-----------0----------------0-----0--|------------0------------------------|
C#|-----0h2-----------2p0----------0----|------0h2-----------2p0--------------|
G#|-------------------------------------|-------------------------------------|
D#|--3-----------3----------3-----------|--3------------3----------3----------|
   Good lord almighty, girl, you go down good
   You ain't even trying, 'cause you wrote the book
   There ain't nobody do me like you
   The way you move that body, girl, you're so smooth


[Outro]

     G
D#|-------------------------------------|-------------------------------------|
A#|-------------------------------------|-----------------------------0-------|
F#|-----------0----------------0-----0--|------------0------------------------|
C#|-----0h2-----------2p0----------0----|------0h2-----------2p0--------------|
G#|-------------------------------------|-------------------------------------|
D#|--3-----------3----------3-----------|--3------------3----------3----------|
     Smooth
     Smooth                                You so smooth,               smooth


************************************
| h   Hammer-on
| p   Pull-off
************************************
Suggest correction
Give kudos to tab author, rate the tab!
1 2 3 4 5
comments
print report bad tab
guest
You may want to rate the tab now too:
select rating
Wanna post a correction for this tab? Suggest correction