Oops, an error
Loading. Please wait.

Stay Chords

version 2
version 2

Whole song

58,401 views 84 this week
1 commentread comment
1 2 3 4 5
accurate
x 11
add to favorites
launch autoscroll
font size
0
reset
transpose
0
reset
- display chords -
guitar tuner
Tab Pro tools
  • play this tab
  • loop segment
  • change instrument
  • show fretboard
  • metronome
×
Best way to learn
"Stay"
Autoscroll
slow
fast
+/-
esc
set tempo
stop
Contributor
Difficulty
Tuning
novice
D# G# C# F# A# D#
-------------------------------------------------------------------------------
                             Stay -  Florida Georgia Line
-------------------------------------------------------------------------------
Tabbed by: Kyle J Gillen
E-mail: kygillen@yahoo.com

Tuning: 1/2 Step Down


      G                   A                          Bm
e|-----------------------------------------------------------------------------|
B|--------3--------------------3--------------------------3------3---------3---|
G|---------------------------3--------------------------4----4------4---4----4-|
D|------0------------------3--------------------------4--------4------4-------4|
A|----2------------------0--------------------------2--------------------------|
E|--3--------------------------------------------------------------------------|

          Id sell my     soul just to see your      face

       G                   A                          Bm
e|-----------------------------------------------------------------------------|
B|--------3--------------------3--------------------------3------3---------3---|
G|---------------------------3--------------------------4----4------4---4----4-|
D|------0------------------3--------------------------4--------4------4-------4|
A|----2------------------0--------------------------2--------------------------|
E|--3--------------------------------------------------------------------------|

         And Id break my bones just to heal your    pain

       G                    A                         Bm
e|-----------------------------------------------------------------------------|
B|--------3--------------------3--------------------------3------3---------3---|
G|---------------------------3--------------------------4----4------4---4----4-|
D|------0------------------3--------------------------4--------4------4-------4|
A|----2------------------0--------------------------2--------------------------|
E|--3--------------------------------------------------------------------------|

           In these      times I need a saving      grace

G (once)                            A (once)
     But time is runnin out, and Im startin to lose my faith

[Chorus]
         G                    D                        A
But if I told you I love you, would it make you wanna stay
   Bm    A       G                  D               A
Im sorry for the way I hurt you and makin you walk away
                                                     (I shoulda took the time to tell you)
         G                         D                     A
And if I wrote you a love song and sang it to you every day
         Bm      A         G              D                   A
Would it ever be enough to make you wanna come back home and stay  
                                                           (I cant go another day without you)
         G         D                A
Would it make you, make you, wanna stay
                                     (Girl you gotta know I love you)


[Verse 2]
G                 A                       Bm
 My heart's on my sleeve, but it's turnin black
                                            (I guess I know what it feels like it to be alone)
G             A                   Bm
 Without your touch I'm not gonna last
                                    (I know you know that I need ya just to carry on)
G                 A                Bm
 It feels like my walls are caving in
                                   (You'd always hold me before I left you hanging on)
G                        A
 And I'll do anything to have you here again




[Chorus]
         G                    D                        A
But if I told you I love you, would it make you wanna stay
   Bm    A       G                  D               A
Im sorry for the way I hurt you and makin you walk away
                                                     (I shoulda took the time to tell you)
         G                         D                     A
And if I wrote you a love song and sang it to you every day
         Bm      A         G              D                   E
Would it ever be enough to make you wanna come back home and stay  
                                                           (I cant go another day without you)




 [Solo]

G, D, A, Bm, A, G, D, A

[Bridge]
          G         A         Bm        D
Yeah, the days are cold, the nights are long 
    G          A        Bm  
And I can't stand to be alone
G           A        Bm      D
Please know this is not your fault
    A
And all I want,

      G (once)                D (once)       A (once)
Is to tell you I love you and make you wanna stay
                               G (once)                D (once)        A (once)
There's gotta be a way, 'cause going on without you is killing me everyday
         G                         D                    A
And if I wrote you a love song and sang it to you every day
         Bm      A         G              D                  A
Would it ever be enough to make you wanna come back home and stay 
                                                           (I cant go another day without you)

         G         D                A
Would it make you, make you, wanna stay
                                     (Girl you gotta know I love you)
         G         D                A
Would it make you, make you, wanna stay
                                     (I cant go another day without you)
         G         D                A (once)
Would it make you, make you, wanna stay?





Chords Used:

          EADGBe
       G: 320033                        
       A: 002220
       D: x00232
      Bm: 224432
       E: 022100
comments
print report bad tab
1 comment total.
0 reply
bobby37 wrote on December 18 2013, 04:38 pm

awesome tab man thanks

I want to post or [tab]
guest
You may want to rate the tab now too:
select rating
Please do not post tabs as comments. Select "correction" instead!