Oops, an error
Loading. Please wait.

Cool And Refreshing chords

by Florist
3,601 views 57 this week
4 commentsread comments
1 2 3 4 5
x 10
add to favorites
×
Save as Personal and add changes to this tab that will be seen only by you. Learn more ›
×
You can save this tab as Personal to edit and correct it or add notes. All changes will be seen only by you. Learn more »
launch autoscroll
font size
0
reset
transpose
0
reset
display chords
guitar tuner
edit
Autoscroll
slow
fast
+/-
esc
set tempo
stop
Strumming
There is no strumming pattern for this song yet. and get +5 IQ
NOTE: capo on 5th fret

[Intro]

D F#m Em A


[Verse]

D                   F#m
i'm so terrified of all the things i love
  Em                            A
i know that i will lose them all one by one 
    D                                    F#m
but that's not what i think about when i look into the sky 
      Em                                   A
i see sunlight that is blinding and it just hurts my eyes 


[Chorus]

G   D            A          Em
i'm trying to be fine but i lie 
 D                 A              Em
about the things i say will never die 
     D            A
like memories, forgiveness, 
        G
and the light inside my eyes 

     F#m  Em
it's terrifying 
  F#m Em
it's totally fine 

D


[Verse]

D                          F#m
think of me by the creek in cut off jeans 
Em                             A
holding onto something that has meaning to me 
D                       F#m                       Em
i don't really think my life will ever make me as happy 
   A
as Kaaterskill creek 


[Chorus]

G   D            A            Em
i'm trying to be good but i'm done 
   D         A            Em
no wait just kidding i'm not 
    D                 A           G
cuz i still have that feeling of water above my knees 

     F#m        Em          F#m
it's cool and refreshing 
               Em
and that won't fade away

D
Suggest correction
Creating personal tab
Creating personal tab
You can edit any tab online and save it as your Personal.

You can edit, replace or remove any tab part or add personal notes – all changes will be seen only by you.

Personal tabs can be accessed anytime from any device, even offline.
Learn more »
comments
print report bad tab
4 comments total. Showing first comments.
0 reply
deadlytempl4r 32 Jun 10, 2017 03:05 PM, edited on June 11 2017, 02:50 pm

I think the picking pattern for the Intro and Outro goes something like this:
e|-----------------2---------------------------2-------------------------|
B|--3--------0h3------3---------3--------0h3------3----------------------|
G|----2----------2------2---------2----------2------2--------------------|
D|--0----0---0------------------0----0---0-------------------------------|
A|-----------------------------------------------------------------------|
E|-----------------------------------------------------------------------|

0 reply
deadlytempl4r 32 Jun 10, 2017 05:51 PM, edited at 09:55 pm

~

0 reply
deadlytempl4r 32 Jun 10, 2017 05:54 PM, edited on June 11 2017, 03:07 pm

Im not 100% sure about this picking pattern for the verse, please correct me if you notice any mistakes. Also, try to listen to the song for the perfect rhythm.
----A---------Em------------------------D---------A---------Em----------

e|---------------------0-----------------------0-----------------------0|
B|----2----------0-------0-------0---------3--------2-----------0-------|
G|----------2------0---------0-------0--------------------2-------0-----|
D|----2---2------2---------2-------2-------2--------2---2-------2-------|
A|--0---------2------2---------2--------0---------0----------2------2---|
E|----------------------------------------------------------------------|

-----------------D----------A------------G------------------------------

e|-----------------------0------------------------0---------------------|
B|-0-------0---------3---------2------------0-------0--------0----------|
G|-----0-------0---------------------2--------2----------0-------0------|
D|---2-------2-------2---------2---2------------0------2-------0--------|
A|-------2--------0---------0---------------2--------------2------------|
E|---------------------------------------3------------------------------|

---F#m----------------------Em------------------------D--------A--------

e|----------2-------------------------0---------------------0-----------|
B|----2-------2-------2---------0-------0-------0---------3-------2-----|
G|------2---------2-------2-------0---------0-------0------------------2|
D|--------3-----3-------3-------2---------2-------2-------2-------2--2--|
A|----3-------------3--------2------2---------2--------0-------0--------|
E|--2-------------------------------------------------------------------|

and so forth...

guest
You may want to rate the tab now too:
select rating
Wanna post a correction for this tab? Suggest correction