Oops, an error
Loading. Please wait.

Cool And Refreshing tab

by Florist
205 views 24 this week
2 commentsread comments
1 2 3 4 5
x 3
add to favorites
×
Save as Personal and add changes to this tab that will be seen only by you. Learn more ›
×
You can save this tab as Personal to edit and correct it or add notes. All changes will be seen only by you. Learn more »
launch autoscroll
font size
0
reset
how to read this tab
guitar tuner
edit
Autoscroll
slow
fast
+/-
esc
set tempo
stop
About this tab version
Only tab-version of this song so far. Was this info helpful? Yes No
[Intro]
    D 
e|---------------------2--------|
B|----3----------0h3-------3----|
G|--------2----------2-------2--|      4x
D|----0-----0----0--------------|
A|--0---------------------------|
E|------------------------------|
    
[Verse]
    D                                F#m
e|--------------2-------------------|------------2-------------------|
B|-----3-------------3-------3------|----2-----------2-------2-------|
G|----------2------------2-------2--|--------2------------2-------2--|
D|-----0---------------0-------0----|----------4--------4-------4----|
A|--0---------0------------0--------|----4-----------------4---------|
E|----------------------------------|-2------------------------------|
    I'm so terrified of                all the things i love I
  that's not what I think about when I look into the sky, I see

    Em                               A                                               2x
e|--------------0-------------------|-------------0-------------------|
B|-----0-------------0-------0------|----2-------------2-------2------|
G|----------0------------0-------0--|---------2------------2-------2--|
D|-----2---------------2-------2----|----2---------------2-------2----|
A|--2---------2------------2--------|-0---------0------------0--------|
E|----------------------------------|---------------------------------|
    know that I will lose them all,    one by one          but  
 sunlight that is blinding me and it just, hurts my eyes

[Chorus]
    G6                                D            A             Em
e|--------------0-------------------|-------0----|------------|--------------0-------------------|
B|-----0-------------0--------0-----|----3-------|---2--------|-----0-------------0-------0------|
G|----------0-------------0-------0-|-----------2|----------2-|----------0------------0-------2--|
D|------------0---------0-------0---|----0----0--|---2----2---|-----2---------------2-------2----|
A|-----2--------------------2-------|-0----------|0-----------|--2---------2------------2--------|
E|--3-------------------------------|------------|------------|----------------------------------|
     I´m....                          trying to be fine,   but I lie

    D           A              Em
e|--------0-----|------------|---------------0-------------------|
B|-----3--------|---2--------|------0-------------0-------0------|
G|------------2-|----------2-|-----------0------------0-------2--|
D|-----0----0---|---2----2---|------2---------------2-------2----|
A|--0-----------|0-----------|---2---------2------------2--------|
E|--------------|------------|-----------------------------------|
 about the things I say will never die              like

    D           A              G6
e|--------0-----|------------|---------------0-------------------|
B|-----3--------|---2--------|------0-------------0-------0------|
G|------------2-|----------2-|-----------0------------0-------0--|
D|-----0----0---|---2----2---|-------------0--------0-------0----|
A|--0-----------|0-----------|------2-------------------2--------|
E|--------------|------------|---3-------------------------------|
     memories, forgivness, and the light inside my eyes...It's

   F#m                              Em
e|-------------2-------------------|-------------0-------------------|
B|-----2-----------2--------2------|----0-------------0-------0------|
G|---------2------------2-------2--|---------0------------0-------2--|      2x
D|-----------4--------4-------4----|----2---------------2-------2----|
A|-----4------------------4--------|-2---------2------------2--------|
E|--2------------------------------|---------------------------------|
     teeeEEEeee..rrif                 ying,....            It's
     toooootallyy                     fine

    D 
e|---------------------2--------|
B|----3----------0h3-------3----|
G|--------2----------2-------2--|      2x
D|----0-----0----0--------------|
A|--0---------------------------|
E|------------------------------|

[Verse]
    D                                 F#m
e|--------------2-------------------|------------2----------------------------|
B|-----3-------------3-------3------|----2-----------2-------2----------------|
G|----------2------------2-------2--|--------2------------2-------2-----------|
D|-----0---------------0-------0----|----------4--------4-------4-------------|
A|--0---------0------------0--------|----4-----------------4------------------|
E|----------------------------------|-2---------------------------------------|
     think of me by the creek...in      cut off jeans
     I dont really think,.....my        life will ever make me,  as 

    Em                                A                                              2x
e|--------------0-------------------|-------------0---------------------------|
B|-----0-------------0-------0------|----2-------------2-------2--------------|
G|----------0------------0-------0--|---------2------------2-------2----------|
D|-----2---------------2-------2----|----2---------------2-------2------------|
A|--2---------2------------2--------|-0---------0------------0----------------|
E|----------------------------------|-----------------------------------------|
      holding onto something that has...meaning to me
      happy....         as             Kaaterskill creek....

[Chorus]
    G6                               D           A           Em
e|--------------0-------------------|-------0----|--------------|-------------0-------------------|
B|-----0-------------0--------0-----|----3-------|----2---------|----0-------------0-------0------|
G|----------0-------------0-------0-|-----------2|-----------2--|---------0------------0-------2--|
D|------------0---------0-------0---|----0----0--|----2----2----|----2---------------2-------2----|
A|-----2--------------------2-------|-0----------|-0------------|-2---------2------------2--------|
E|--3-------------------------------|------------|--------------|---------------------------------|
   I'm.......                        trying to be good, but I'm done....

    D           A              Em
e|--------0----|--------------|-------------0-------------------|
B|-----3-------|----2---------|----0-------------0-------0------|
G|------------2|-----------2--|---------0------------0-------2--|
D|-----0----0--|----2----2----|----2---------------2-------2----|
A|--0----------|-0------------|-2---------2------------2--------|
E|-------------|--------------|---------------------------------|
    no wait, just kidding,.. I'm not.....             cuz'

    D           A              G6
e|--------0----|--------------|-------------0--------------------|
B|-----3-------|----2---------|----0-------------0--------0------|
G|------------2|-----------2--|---------0-------------0-------0--|
D|-----0----0--|----2----2----|-----------0---------0-------0----|
A|--0----------|-0------------|----2--------------------2--------|
E|-------------|--------------|-3--------------------------------|
 I still have that feeling,....of water above my knees..It's 

   F#m                              Em
e|-------------2-------------------|-------------0-------------------|
B|-----2-----------2--------2------|----0-------------0-------0------|
G|---------2------------2-------2--|---------0------------0-------2--|      2x
D|-----------4--------4-------4----|----2---------------2-------2----|
A|-----4------------------4--------|-2---------2------------2--------|
E|--2------------------------------|---------------------------------|
     cooool    aaAAAaaand           re-freshing      
           and that wont....          faaaaade awaaahay

[Outro]
    D 
e|---------------------2--------|
B|----3----------0h3-------3----|
G|--------2----------2-------2--|      4x
D|----0-----0----0--------------|
A|--0---------------------------|
E|------------------------------|
I'd recommend listening to the song in order to get the perfect rhythm.
Also I gave my best to make the lyrics accurate :D


***********************************

| h   Hammer-on

***********************************
Suggest correction
Creating personal tab
Creating personal tab
You can edit any tab online and save it as your Personal.

You can edit, replace or remove any tab part or add personal notes – all changes will be seen only by you.

Personal tabs can be accessed anytime from any device, even offline.
Learn more »
Give kudos to tab author, rate the tab!
1 2 3 4 5
comments
print report bad tab
2 comments total.
+1 reply
jessica_kayess 254 Jun 26, 2017 09:50 PM

thank GOD you posted this bc i was trying to figure out how to pick from the chords and was having a hard time. nice work !!

guest
You may want to rate the tab now too:
select rating
Wanna post a correction for this tab? Suggest correction