Oops, an error
Loading. Please wait.

Vacation tab

by Florist
10,082 views 117 this week
no commentswrite comment
1 2 3 4 5
x 15
add to favorites
×
Save as Personal and add changes to this tab that will be seen only by you. Learn more ›
×
You can save this tab as Personal to edit and correct it or add notes. All changes will be seen only by you. Learn more »
launch autoscroll
font size
0
reset
how to read this tab
guitar tuner
edit
Autoscroll
slow
fast
+/-
esc
set tempo
stop
vacation by florist
capo 5th fret


intro
e|-----------------------------------------------------------------------|
B|-----------------------------------------------------------------------|
G|---4---2-0-----0---------0---0-------4---2-0-----0---------0---0-------|
D|-----0-----0-2---2-----0---0---0-------0-----0-2---2-----0---0---0-----|
A|-------------------0-2-------------------------------0-2---------------|
E|---3---3-----3---3---3---------------3---3-----3---3---3---------------|

e|-----------------------------------------------------------------------|
B|-------3----------0-----0----------------------------------------------|
G|---4----------2-----------2-0--------4---2-0-----0---------0---0-------|
D|-----0---0------0---0---------0-2------0-----0-2---2-----0---0---0-----|
A|-----------------------------------------------------0-2---------------|
E|---3---3------3---3-----3---3--------3---3-----3---3---3---------------|


verse 1
e|-----------------------------------------------------------------------|
B|-----------------------------------------------------------------------|
G|---4---2-0-----0---------0---0-------4---2-0-----0---------0---0-------|
D|-----0-----0-2---2-----0---0---0-------0-----0-2---2-----0---0---0-----|
A|-------------------0-2-------------------------------0-2---------------|
E|---3---3-----3---3---3---------------3---3-----3---3---3---------------|
     i don't know how to be            what i wanted to be when i was 5

e|-----------------------------------------------------------------------|
B|-------3----------0-----0----------------------------------------------|
G|---4----------2-----------2-0--------4---2-0-----0---------0---0-------|
D|-----0---0------0---0---------0-2------0-----0-2---2-----0---0---0-----|
A|-----------------------------------------------------0-2---------------|
E|---3---3------3---3-----3---3--------3---3-----3---3---3---------------|
     sometimes blue eyes sometimes green


verse 2
e|-----------------------------------------------------------------------|
B|-----------------------------------------------------------------------|
G|---4---2-0-----0---------0---0-------4---2-0-----0---------0---0-------|
D|-----0-----0-2---2-----0---0---0-------0-----0-2---2-----0---0---0-----|
A|-------------------0-2-------------------------------0-2---------------|
E|---3---3-----3---3---3---------------3---3-----3---3---3---------------|
     bike rides                        snow hikes and christmas lights

e|-----------------------------------------------------------------------|
B|-------3----------0-----0----------------------------------------------|
G|---4----------2-----------2-0--------4---2---0---2---------------------|
D|-----0---0------0---0---------0-2------0---0---0---0--2-2-2-0----------|
A|-----------------------------------------------------------------------|
E|---3---3------3---3-----3---3--------3---3---3---3----3-3-3-3----------|
    sometimes freezing sometimes warm  i don't know if i can love that anymore


chorus bit
e|-----------------------------------------------------------------------|
B|-------------------------------------------------------0-------0-------|
G|-----------------------------------------------0------0----0-----------| x4
D|-----------------------------------------------------------------------|
A|--7-7-7-7-7-7-7-7-7-7-7-7-7-7-7-7------------2-------------------------|
E|--8-8-8-8-8-8-8-8-8-8-8-8-8-8-8-8------------3--3--3--3--3---3---------|
  cause i got it all, got it all mistaken
  for a meaningful life and a fun family vacation
  like when i used to ride roller coasters with my dad
  when a swimming pool in a hotel was a gift from god

  
interlude
e|-----------------------------------------------------------------------|
B|-----------------------------------------------------------------------|
G|---4---2-0-----0---------0---0-------4---2-0-----0---------0---0-------|
D|-----0-----0-2---2-----0---0---0-------0-----0-2---2-----0---0---0-----|
A|-------------------0-2-------------------------------0-2---------------|
E|---3---3-----3---3---3---------------3---3-----3---3---3---------------|

e|-----------------------------------------------------------------------|
B|-------3----------0-----0----------------------------------------------|
G|---4----------2-----------2-0--------4---2-0-----0---------0---0-------|
D|-----0---0------0---0---------0-2------0-----0-2---2-----0---0---0-----|
A|-----------------------------------------------------0-2---------------|
E|---3---3------3---3-----3---3--------3---3-----3---3---3---------------|


verse 3 
e|-----------------------------------------------------------------------|
B|-----------------------------------------------------------------------|
G|---4---2-0-----0---------0---0-------4---2-0-----0---------0---0-------|
D|-----0-----0-2---2-----0---0---0-------0-----0-2---2-----0---0---0-----|
A|-------------------0-2-------------------------------0-2---------------|
E|---3---3-----3---3---3---------------3---3-----3---3---3---------------|
     like love or like a family        i don't know how to be

e|-----------------------------------------------------------------------|
B|-------3----------0-----0----------------------------------------------|
G|---4----------2-----------2-0--------4---2---0---2---------------------|
D|-----0---0------0---0---------0-2------0---0---0---0--2-2-2-0----------|
A|-----------------------------------------------------------------------|
E|---3---3------3---3-----3---3--------3---3---3---3----3-3-3-3----------|
     maybe i just wanna get married    maybe i just wanna fall asleep 


chorus bit
e|-----------------------------------------------------------------------|
B|-------------------------------------------------------0-------0-------| x5
G|-----------------------------------------------0------0----0-----------|
D|-----------------------------------------------------------------------|
A|--7-7-7-7-7-7-7-7-7-7-7-7-7-7-7-7------------2-------------------------|
E|--8-8-8-8-8-8-8-8-8-8-8-8-8-8-8-8------------3--3--3--3--3---3---------|
  but at least i know that the world is spinning 
  when we're tangled in the bed sheets

  and at least i know that my mom is breathing
  when we talk on the phone

  and at least i know that my house won't burn down down to the ground
  or maybe it will

  if i've been in love before and i'm pretty sure i have
  i'm pretty sure that my house can burn down down to the ground tomorrow

  if i've been in love before and i know that i have
  then i know that my house can burn down down down down to the ground tomorrow


outro
e|-----------------------------------------------------------------------|
B|-----------------------------------------------------------------------|
G|---4---2-0-----0---------0---0-------4---2-0-----0---------0---0-------|
D|-----0-----0-2---2-----0---0---0-------0-----0-2---2-----0---0---0-----|
A|-------------------0-2-------------------------------0-2---------------|
E|---3---3-----3---3---3---------------3---3-----3---3---3---------------|

e|-----------------------------------------------------------------------|
B|-------3----------0-----0----------------------------------------------|
G|---4----------2-----------2-0--------4---2-0-----0---------0---0-------|
D|-----0---0------0---0---------0-2------0-----0-2---2-----0---0---0-----|
A|-----------------------------------------------------0-2---------------|
E|---3---3------3---3-----3---3--------3---3-----3---3---3---------------|


the chorus isn't completely correct but you can use this video to help you:
https://youtu.be/WbyyxIZ02Zs
i used it to tab this song


            
            
Suggest correction
Creating personal tab
Creating personal tab
You can edit any tab online and save it as your Personal.

You can edit, replace or remove any tab part or add personal notes – all changes will be seen only by you.

Personal tabs can be accessed anytime from any device, even offline.
Learn more »
comments
print report bad tab
guest
You may want to rate the tab now too:
select rating
Wanna post a correction for this tab? Suggest correction