Oops, an error
Loading. Please wait.

Desecrater Bass Tab

601 views 1 this week
no commentswrite comment
1 2 3 4 5
please rate
add to favorites
launch autoscroll
font size
0
reset
guitar tuner
Autoscroll
slow
fast
+/-
esc
set tempo
stop
Help us to improve Ultimate-Guitar.com Take our survey!
×
Author
Difficulty
intermediate
---------------------------------------------------------------------------------------------------------------------
			     Desecrater - Flotsam and Jetsam
---------------------------------------------------------------------------------------------------------------------

Tabbed By : (...)
e-mail: ajmclaughlin5@aim.com

Tuning: Standard

INTRO
G|----*-*-----|
D|----2-2-103-|
A|-1----------|
E|------------|

RIFF A (This is also the Chorus Riff)
G|------------------------------------------------------------------------------------------------------------------|
D|---------2---------------0-2---------2---222-222-----------------2---------------0-2---------2----------------0-2-|
A|-----------1---------1-3---------------1---------5-3-0-1-----------1---------1-3---------------1-11111111-0-3-----|
E|-000-000-----000-000---------000-000---------------------000-000-----000-000---------000-000----------------------|

VERSE RIFF
G|-----------------------------------------|
D|-----------------------------------------|
A|-000000000000-2-3-2-0000000000-2-3-0-2-3-|
E|-----------------------------------------|

BRIDGE (Part after the first Chorus when he is screaming)
G|-------------------|
D|-----------3-2-----|
A|-2-222-222-----5-3-|
E|-------------------|

SOLO RHYTHM 1
G|--------------------------------------------------------|
D|--------------------------------------------------------|
A|----------------------*-*-*-----------------------*-*-*-|
E|-3-1-0--3-1-0--3-1-0--0-1-3--3-1-0--3-1-0--3-1-0--0-1-2-|

SOLO RHYTHM 2
G|-----------------------------------------------------|
D|-----------------------------------------------------|
A|-----------------------------------------------------|
E|-3210---3210---3210---013---3210---3210---3210---012-|

ENDING
G|-*-*-----|
D|-2-2-013-|
A|---------|
E|---------|

This is the order in which the whole song is played:
INTRO (1 Time)
RIFF A (2 Times)
VERSE RIFF (4 Times)
RIFF A (1 Time)
VERSE RIFF (4 Times)
RIFF A (2 Times)
BRIDGE (8 Times)
SOLO RHYTHM 1 (2 Times)
SOLO RHYTHM 2 (2 Times)
SOLO RHYTHM 1 (2 Times)
SOLO RHYTHM 2 (2 Times)
SOLO RHYTHM 1 (2 Times)
SOLO RHYTHM 2 (2 Times)
RIFF A (2 Times)
VERSE RIFF (4 Times)
RIFF A (2 Times)
ENDING (1 Time)


| h  hammer-on
| p  pull-off
| ~  vibrato
| +  harmonic
| x  Mute note
| *  Staccato 
=====================================================================================================================
Suggest correction
Give kudos to tab author, rate the tab!
1 2 3 4 5
comments
print report bad tab
guest
You may want to rate the tab now too:
select rating
Wanna post a correction for this tab? Suggest correction