Oops, an error
Loading. Please wait.

Dig Me Up To Bury Me Tab

450 views 1 this week
no commentswrite comment
1 2 3 4 5
please rate
add to favorites
launch autoscroll
font size
0
reset
how to read this tab
guitar tuner
Autoscroll
slow
fast
+/-
esc
set tempo
stop
Help us to improve Ultimate-Guitar.com Take our survey!
×
Difficulty
intermediate
FLOTSAM AND JETSAM - DIG ME UP TO BURY ME
(My God, 2001)

Key
= after note = vibrato
^ after note = heavy vibrato
\ = slide down
/ = slide up
+ = tap
h = hammer
p = pull
n = natural harmonic
s = pinching harmonic (squeal)
* = tremolo pick
t = trill
b = bend
|-3-| = triplet

n number above the tab = play the first part then the first finishing part
			 play the first part a second time and then play the second finishing part
			 etc.

Riff 1

E -----------------------|
B -----------------------|
G -----------------------|
D -4---5---3---4---5--3--|
A -4---5---3---4---5--3--|
E -2---3---1---2---3--1--|

Riff 2

E -------------------------------------------------------------------------------------------------|
B -------------------------------------------------------------------------------------------------|
G -------------------------------------------------------------------------------------------------|
D -------------------------------------------------------------------------------------------------|
A -7-7---7---7---7-----7-7-----7---6-6---6---6---6-----6-6-----6---7-7---7---7---7-----7-7-----7---|
E -----0---0---0---0-0-----0-0---0-----0---0---0---0-0-----0-0---0-----0---0---0---0-0-----0-0---0-|

  1
E ---------------------------------|
B ---------------------------------|
G ---------------------------------|
D ---------------------------------|
A ---------------------------------|
E -3-4-0-3-4-0-4-5-0-4-5-0-5-6-5-6-|

  2
E ---------------------------------|
B ---------------------------------|
G ---------------------------------|
D -5-6---5-6---6-7---6-7---7-8-7-8-|
A -5-6---5-6---6-7---6-7---7-8-7-8-|
E -3-4-0-3-4-0-4-5-0-4-5-0-5-6-5-6-|

Riff 2A

E ---------------------------------------------------------------|
B ---------------------------------------------------------------|
G ---------------------------------------------------------------|
D ---------------------------------------------------------------|
A -7-7---7---7---7-----7-7-----7---6-6---6---6---6-----6-6-----6-|
E -----0---0---0---0-0-----0-0---0-----0---0---0---0-0-----0-0---|

Riff 3

E -----------------------------------------------------------------------------------------------|
B -----------------------------------------------------------------------------------------------|
G -----------------------------------------------------------------------------------------------|
D -----------------------------------------------------------------------------------------------|
A -1-------1-----------1-------1---2-------2-----------2-------2---1-------1---------1-------1---|
E ---3-3-3---3-3-3-3-3---3-3-3---3---3-3-3---3-3-3-3-3---3-3-3---3---3-3-3---3-3-3-3---3-3-3---3-|

E -------------------------------|
B -------------------------------|
G -----------------3-4-4---------|
D -----------------3-4-4--4-5-5--|
A -2-----2---------1-2-2--4-5-5--|
E ---3-3---3-3-3-3--------2-3-3--|

Riff 3A

E -----------------------------------------------------------------------------------------------|
B -----------------------------------------------------------------------------------------------|
G -----------------------------------------------------------------------------------------------|
D -3-------3-----------3-------3---4-------4-----------4-------4---3-------3---------3-------3---|
A -----------------------------------------------------------------------------------------------|
E ---3-3-3---3-3-3-3-3---3-3-3---3---3-3-3---3-3-3-3-3---3-3-3---3---3-3-3-3-3-3-3-3---3-3-3---3-|

E -------------------------------|
B -------------------------------|
G -----------------3-4-4---------|
D -4-------4-------3-4-4--4-5-5--|
A -----------------1-2-2--4-5-5--|
E ---3-3-3---3-3-3--------2-3-3--|

Riff 4

E ------------------------------------------------------|
B ------------------------------------------------------|
G ------------------------------------------------------|
D -2-2-2--2-2--2-2-2-2-2-2--2-----1----1-------1----1---|
A -2-2-2--2-2--2-2-2-2-2-2--2-----1----1-------1----1---|
E -0-0-0--0-0--0-0-0-0-0-0--0-0-0----0-----0-0----0-----|
		 |-3-|

Riff 4A

E ------------------------------------------------------|
B ------------------------------------------------------|
G ---------------------9-9-9----------------------------|
D -2-2-2--2-2--2-2-2-2-9-9-9-----1----1-------1----1----|
A -2-2-2--2-2--2-2-2-2-7-7-7-----1----1-------1----1----|
E -0-0-0--0-0--0-0-0-0-------0-0----0-----0-0----0------|
         |-3-| |-3--------------------------------------|

Riff 5

E -------------------------------------------------------------------------------------|
B -------------------------------------------------------------------------------------|
G -------------------------------------------------------------------------------------|
D -------3---------3-----------------3---------3-----------------3---------3-----------|
A -------------------------------------------------------------------------------------|
E -1-0-0-----1-0-0-----1-1-0---1-0-0-----1-0-0-----1-1-0---1-0-0-----1-0-0-----1-1-0---|

E ----------------------------|
B ----------------------------|
G ----------------------------|
D -------3---------4-------5--|
A ----------------------------|
E -1-0-0-----2-0-0----0-3-0---|

Riff 5A

E ----------------------------------------------------------------------------------------------------------------------|
B ----------------------------------------------------------------------------------------------------------------------|
G ----------------------------------------------------------------------------------------------------------------------|
D -3-2---2----3-2---2----2-2-----3-2---2----3-2---2----2-2-2-3-2---2----3-2----2----2-2-----------3---------4--------5--|
A -3-2---2----3-2---2----2-2-----3-2---2----3-2---2----2-2-2-3-2---2----3-2----2----2-2---------------------------------|
E -----0----0-----0----0-0-0---0---------------------0-0-0-0-----0----0-----0-----0-0-0---0-1-0-0-----2-0-0----0-3-0----|
						       |-3-|

Order

Fade in Riff 1
Solo over Riff 2 x 1
Riff 2 x 1
Riff 3 x 1
Riff 3/3A x 1
Riff 2A x 1
Solo over Riff 2 x 1
Riff 2 x 1
Riff 3 x 1
Riff 3/3A x 1
Riff 4 x 4
Lead fills over Riff 4A x 4
Riff 5 x 2
Riff 5A x 2
Riff 2A x 1
Solo over Riff 2 x 2
Riff 3 x 1
Riff 3/3A x 1
Riff 4 x 4
Lead fills over Riff 4A x 4
Riff 1 until fade

Tabbed by Radiohater 2003
Suggest correction new What's this?
You can suggest a correction to this tab. Community and Mods will review your correction and vote to approve or reject it.
comments
We did not receive enough feedback on this tab! Please rate:
print report bad tab
1 2 3 4 5
guest
You may want to rate the tab now too:
select rating
Please do not post tabs as comments. Select "correction" instead!