Oops, an error
Loading. Please wait.

Hammerhead Tab

version 1
version 1

Whole song

Interactive

2,187 views 1 this week
no commentswrite comment
1 2 3 4 5
excellent!
x 3
add to favorites
launch autoscroll
font size
0
reset
how to read this tab
guitar tuner
Autoscroll
slow
fast
+/-
esc
set tempo
stop
Help us to improve Ultimate-Guitar.com Take our survey!
×
Difficulty
intermediate
FLOTSAM AND JETSAM - HAMMERHEAD
(Doomsday For The Deciever, 1986)

Key
= after note = vibrato
^ after note = heavy vibrato
\ = slide down
/ = slide up
+ = tap
h = hammer
p = pull
n = natural harmonic
s = pinching harmonic (squeal)
* = tremolo pick
t = trill
b = bend
|-3-| = triplet

n number above the tab = play the first part then the first finishing part
			 play the first part a second time and then play the second finishing part
			 etc.

Intro

E ----------------------------|
B ----------------------------|
G -10----------7----4---------|
D -10----10----7----4----2----|
A -8 ----10----5----2----2----|
E -------8 --------------0----|

Intro part 2

E -------------------    ---|
B -------------------    ---|
G -------------------    ---|
D -2--2--2--2--2--2--x 4 -2-|
A -2--2--2--2--2--2--    -2-|
E -0--0--0--0--0--0--    -0-|

Riff 1A

E ------------------------------------------------------------------------------------|
B ------------------------------------------------------------------------------------|
G -10-9--------------10-9-------9-12----10----10-9--------------10-9--------5----7----|
D -10-9--------------10-9-------9-12----10----10-9--------------10-9--------5----7----|
A -8 -7--------------8 -7-------7-10----8 ----8 -7--------------8 -7--------3----5----
E ------------------------------------------------------------------------------------

E -------------------------------------------------------------------------------------|
B -------------------------------------------------------------------------------------|
G -10-9--------------10-9-------9-12----10----10-9--------------10-9--------5-------7--|
D -10-9--------------10-9-------9-12----10----10-9--------------10-9--------5----5--7--|
A -8 -7--------------8 -7-------7-10----8 ----8 -7--------------8 -7--------3----5--5--
E -------------------------------------------------------------------------------3-----

Riff 1

E -----------------------------------------------------------------------------------|
B -----------------------------------------------------------------------------------|
G -10-9----------------------------------------10-9----------------------12----10----|
D -10-9----------------------------------------10-9----------------------12----10----|
A -8 -7----------------------------------------8 -7----------------------10----8 ----|
E ------00-00-00-00-00-00-00-00-00-00-00-00-00------00-00-00-00-00-00-00-------------|

  1
E ---------------------------------------------------------------------------------|
B ---------------------------------------------------------------------------------|
G -10-9----------------------------------------10-9----------------------5----7----|
D -10-9----------------------------------------10-9----------------------5----7----|
A -8 -7----------------------------------------8 -7----------------------3----5----|
E ------00-00-00-00-00-00-00-00-00-00-00-00-00------00-00-00-00-00-00-00-----------|

  2
E ----------------------------------------------------------------------------------|
B ----------------------------------------------------------------------------------|
G -10-9----------------------------------------10-9----------------------5-------7--|
D -10-9----------------------------------------10-9----------------------5----5--7--|
A -8 -7----------------------------------------8 -7----------------------3----5--5--|
E ------00-00-00-00-00-00-00-00-00-00-00-00-00------00-00-00-00-00-00-00------3-----|

Riff 1B

E -----------------------------------------------------------------------------------|
B -----------------------------------------------------------------------------------|
G -10-9----------------------------------------10-9----------------------12----10----|
D -10-9----------------------------------------10-9----------------------12----10----|
A -8 -7----------------------------------------8 -7----------------------10----8 ----|
E ------00-00-00-00-00-00-00-00-00-00-00-00-00------00-00-00-00-00-00-00-------------|

E ---------------------------------------------------------------------------------|
B ---------------------------------------------------------------------------------|
G -10-9----------------------------------------10-9----------------------5----7----|
D -10-9----------------------------------------10-9----------------------5----7----|
A -8 -7----------------------------------------8 -7----------------------3----5----|
E ------00-00-00-00-00-00-00-00-00-00-00-00-00------00-00-00-00-00-00-00-----------|

Riff 2

E --------------------------------------------------------------------------------------------------------------|
B --------------------------------------------------------------------------------------------------------------|
G -------4----4--------------------------------------------------4----4--------5----5--------7----7--10----9----|
D -------4----4--------5----5--------7----7--------4----4--------4----4--------5----5--------7----7--10----9----|
A 
----7----|
E ---------------3-3-3-3--3-3--5-5-5-5--5-5--2-2-2-2--2-2-------------------------------------------------------|

E ---------------------------------------------------------------------------------------------------------------------|
B ---------------------------------------------------------------------------------------------------------------------|
G -------4----4--------------------------------------------------4----4--------5----5----------------------------------|
D -------4----4--------5----5--------7----7--------4----4--------4----4--------5----5----------------------------------|
A -2-2-2-2--2-2--------5----5--------7----7--------4----4--2-2-2-2--2-2--3-3-3-3--3-3--5-5-5-5-5-5-5-5-5-5-5-5-5-5-5-5-|
E ---------------3-3-3-3--3-3--5-5-5-5--5-5--2-2-2-2--2-2--------------------------------------------------------------|

Riff 2A

E --------------------------------------------------------------------------------------------------------------|
B --------------------------------------------------------------------------------------------------------------|
G -------4----4--------------------------------------------------4----4--------5----5--------7----7--10----9----|
D -------4----4--------5----5--------7----7--------4----4--------4----4--------5----5--------7----7--10----9----|
A 
----7----|
E ---------------3-3-3-3--3-3--5-5-5-5--5-5--2-2-2-2--2-2-------------------------------------------------------|

E ---------------------------------------------------------------------------------------------------------------|
B ---------------------------------------------------------------------------------------------------------------|
G -------4----4--------------------------------------------------4----4--------5----5--------7----7--7-7---7-7---|
D -------4----4--------5----5--------7----7--------4----4--------4----4--------5----5--------7----7--7-7---7-7---|
A -2-2-2-2--2-2--------5----5--------7----7--------4----4--2-2-2-2--2-2--3-3-3-3--3-3--5-5-5-5--5-5--5-5---5-5---|
E ---------------3-3-3-3--3-3--5-5-5-5--5-5--2-2-2-2--2-2--------------------------------------------------------|

Riff 2C

E --------------------------------------------------------------------------------------------------------------|
B --------------------------------------------------------------------------------------------------------------|
G -------4----4--------------------------------------------------4----4--------5----5--------7----7--10----9----|
D -------4----4--------5----5--------7----7--------4----4--------4----4--------5----5--------7----7--10----9----|
A 
----7----|
E ---------------3-3-3-3--3-3--5-5-5-5--5-5--2-2-2-2--2-2-------------------------------------------------------|

E --------------------------------------------------------------------------------------------------------------|
B --------------------------------------------------------------------------------------------------------------|
G -------4----4--------------------------------------------------4----4--------5----5------------------7--------|
D -------4----4--------5----5--------7----7--------4----4--------4----4--------5----5------------------7--------|
A -2-2-2-2--2-2--------5----5--------7----7--------4----4--2-2-2-2--2-2--3-3-3-3--3-3--5-5-5-5-5-5-5-5-5--------|
E ---------------3-3-3-3--3-3--5-5-5-5--5-5--2-2-2-2--2-2-------------------------------------------------------|

Riff 3

E -----------------------------------------------------------------|
B -----------------------------------------------------------------|
G -----------------------------------------------------------------|
D -----------------------------------------------------------------|
A -------------------------------------------------2-2-2-2-5-3-2-0-|
E -2-2-2-2-2-2-2-2-3-3-3-3-5-3-2-0-2-2-2-2-2-2-2-2-----------------|

  1
E -----------------------------------------------------------------|
B -----------------------------------------------------------------|
G -------------------------------------------------5-5-------------|
D -------------------------------------------------5-5---5-5-------|
A -------------------------------------------------3-3---5-5-------|
E -2-2-2-2-2-2-2-2-3-3-3-3-5-3-2-0-2-2-2-2-2-2-2-2-------3-3-------|

  2
E -----------------------------------------------------------------|
B -----------------------------------------------------------------|
G -------------------------------------------------------7-7-------|
D -------------------------------------------------5-5---7-7-------|
A -------------------------------------------------5-5---5-5-------|
E -2-2-2-2-2-2-2-2-3-3-3-3-5-3-2-0-2-2-2-2-2-2-2-2-3-3-------------|

Riff 3A

E -----------------------------------------------------------------------------|
B -----------------------------------------------------------------------------|
G -------------------------------------------------------------5-5-------------|
D -4----------------4----------------4----------------4--------5-5---5-5-------|
A -4----------------4----------------4----------------4--------3-3---5-5-------|
E -2----------------2----------------2----------------2--------------3-3-------|

E -----------------------------------------------------------------------------|
B -----------------------------------------------------------------------------|
G -------------------------------------------------------------------7-7-------|
D -4----------------4----------------4----------------4--------5-5---7-7-------|
A -4----------------4----------------4----------------4--------5-5---5-5-------|
E -2----------------2----------------2----------------2--------3-3-------------|

Riff 3B

E 
---|
B 
---|
G 
---|
D 
-2-|
A 
-2-|
E 
-0-|

Riff 4

E -----------------------------------------------------------------------|
B -----------------------------------------------------------------------|
G -9--------5--------7--------4--------9--------5--------7---------------|
D -9--------5--------7--------4--------9--------5--------7---------------|
A -7--------3--------5--------2--------7--------3--------5---------------|
E -----------------------------------------------------------------------|

Order

Intro x 1
Intro part 2 x 1
Riff 1A x 1
Lead fills over Riff 1 x 1
Riff 1 x 1
Riff 2 x 1
Solo over Riff 1B x 1
Riff 1 x 1
Riff 2 x 1
Riff 2A x 1
Riff 3 x 2
Riff 3A x 1
Solo over Riff 3A x 3
Solo over Riff 4 x 2
Solo over Riff 1B x 1
Riff 1 x 1
Riff 2C x 1
Riff 3B x 1

Tabbed by Radiohater 2003
Suggest correction
Give kudos to tab author, rate the tab!
1 2 3 4 5
comments
print report bad tab
guest
You may want to rate the tab now too:
select rating
Wanna post a correction for this tab? Suggest correction