Oops, an error
Loading. Please wait.

Iron Tears Bass Tab

628 views 1 this week
no commentswrite comment
1 2 3 4 5
3 more votes to show rating
add to favorites
launch autoscroll
font size
0
reset
guitar tuner
Autoscroll
slow
fast
+/-
esc
set tempo
stop
Help us to improve Ultimate-Guitar.com Take our survey!
×
Author

Tabbed By : (...)
e-mail: ajmclaughlin5@aim.com

Tuning: Standard 

INTRO
G|------------------------------------------------------------|
D|------------------------------------------------------------|
A|-2----->------2----->------2----->------2------->------2----|
E|---2-3-2--------3-2-0--------2-3-2--------3-5-2-0-------543-|

RIFF A (This is also the verse)
G|----------------------------------------------------------------------------------------------------------------|
D|----------------------------------------------------------------------------------------------------------------|
A|-^---^---^---^---^---^---^-2023-^---^---^---^---^---^---^-20---^---^---^---^---^---^---^-2023-^---^---^---^---^-|
E|-2-002-002-002-002-002-002------2-002-002-002-002-002-002---32-2-002-002-002-002-002-002------2-002-002-002-002-|

LEAD INTO VERSE
G|---------------|
D|-------------*-|
A|-5-7-3-5-1-3-0-|
E|---------------|

PRE-CHORUS
G|-^---^---^---^-^---^---^---^-^---^---^---^-^---^-^---^-^---^---^---^-^---^---^---^-^---^---^---^-^--------|
D|-2-002-002-005-2-002-002-000-2-002-002-005-2-005-2-002-2-002-002-005-2-002-002-000-2-002-002-005-2-00-7-4-|
A|----------------------------------------------------------------------------------------------------------|
E|----------------------------------------------------------------------------------------------------------|

CHORUS
G|--------------------------------------------------------------------------------------------------------------------------------------------------|
D|---------------------------------------------------------2--------^---^---^---^-^---^---^---^--2--------^---^---^---^-^---^---^---^-^---^---^---^-|
A|-^---^---^-2023-^---^---^-20---^---^---^-2023-^---^---^----2-5-0--2-002-002-000-2-002-002-000----2-5-0--2-002-002-000-2-002-002-005-2-002-002-000-|
E|-2-002-002------2-002-002---32-2-002-002------2-002-002-------------------------------------------------------------------------------------------|

BRIDGE
G|------------------------------------------------------|
D|------------------------------------------------------|
A|------------------------>------------------>-------->-|
E|-2222222222-3-2-3-5-3-2-3------3-2-3-5-3-2-3--------0-|

SOLO RHYTHM 1
G|------------------------------------------------|
D|-------^---^-------^---^-------^---^------------|
A|-3-2-002-002-5-2-002-002-3-2-002-002-5555555555-|
E|------------------------------------------------|

SOLO RHYTHM 2
G|------------------------------------------------|
D|------------------------------------------------|
A|-------^---^-------^---^-------^---^------------|
E|-3-2-002-002-5-2-002-002-3-2-002-002-5555555555-|

RIFF B
G|-^---^---^---^-^---^---^---^-^---^---^---^-|
D|-2-002-002-000-2-002-002-005-2-002-002-000-|
A|-------------------------------------------|
E|-------------------------------------------|

END
G|-----------------|
D|-------------*---|
A|-5-7-3-5-1-3-0->-|
E|---------------0-|


Play in this order:
INTRO (1 Time)
RIFF A (1 Time)
LEAD INTO VERSE (1 Time)
RIFF A (1 Time)
PRE-CHORUS (1 Time)
CHORUS (1 Time)
LEAD INTO VERSE (1 Time)
RIFF A (1 Time)
PRE-CHORUS (1 Time)
CHORUS (1 Time)
BRIDGE (1 Time)
LEAD INTO VERSE (1 Time)
SOLO RHYTHM 1 (2  Time)
SOLO RHYTHM 2 (2 Time)
RIFF B (1 Time)
LEAD INTO VERSE (1 Time)
RIFF A (1 Time)
PRE-CHORUS (1 Time)
CHORUS (1 Time)
END (1 Time)


| *  Staccato 
| ^  Accent Note
| >  Accent and Hold Note
| /  Slide Up
| \  Slide Down
| h  Hammer-On
| p  Pull-Off
| ~  Vibrato
| +  Harmonic
| x  Mute Note
=====================================================================================================================================================
Suggest correction
Give kudos to tab author, rate the tab!
1 2 3 4 5
comments
print report bad tab
guest
You may want to rate the tab now too:
select rating
Wanna post a correction for this tab? Suggest correction