Oops, an error
Loading. Please wait.

The Master Sleeps Tab

150 views 1 this week
no commentswrite comment
1 2 3 4 5
please rate
add to favorites
launch autoscroll
font size
0
reset
how to read this tab
guitar tuner
Tab Pro tools
  • play this tab
  • loop segment
  • change instrument
  • show fretboard
  • metronome
×
Best way to learn
"The Master Sleeps"
Autoscroll
slow
fast
+/-
esc
set tempo
stop
Contributor
       Flotsam and Jetsam
      - The Master Sleeps -
    When The Storm Comes Down

        tabbed by PelzR


Some words to this tab too... like me N.E. Terror tab this begun as a Guitar Pro tab some years ago.
I lost my interest in tabbing this song and the fact about the bad production of 
this album didn't help
me to make a good tab out of this one. I think there ARE some mistakes (specially 
the rythm. parts during
the solo), but at least that tab can be a good start for further corrections. 

The song can be tricky sometimes, I only tabbed it in a very basic way. You have 
to learn the riff order
and structure of the whole song on your own. I don't feel like to make a song 
structure this time as the
listening part was alreay complicated and somewhat exhausting. One note I would 
give is that sometimes a
riff I played sounds right... after another try it sounds... not quite right. I 
can not explain it, maybe the
production kills some of the note defination... I really don't know. Maybe my 
guitar strings are going to their
end.

I didn't tabbed the solo and I'm not bothered with them. Hope that's OK. The way 
it is tabbed isn't very good.
I know that. But it is better than nothing, isn't it?


Tuning: Half stepd down (Eb Ab Db Gb Bb Eb)


Riff Section:
-------------

Intro A

Eb|-----------|----------|----------|-------------------|----------|----------------------|
Bb|-----------|----------|----------|-------------------|----------|----------------------|
Gb|-----------|----------|----------|----------R--------|----------|----------------R-----|
Db|-5----5----|-8----8---|-5----5---|-8----8-5---5-8--7-|-5----5---|-8----8---------------|
Ab|-3-3--3-3--|-6-6--6-6-|-3-3--3-3-|-6-6--6-3---3-6--5-|-3-3--3-3-|-6-6--6-6-6-6-6---6-5-|
Eb|---1----1--|---4----4-|---1----1-|---4---------------|---1----1-|---4----4-4-4-4---4-3-|
                                                                            . . . .   . .
    
Eb|-----------|----------|----------|---------------------|
Bb|-----------|----------|----------|---------------------|
Gb|-----------|----------|----------|----------R----------|
Db|------5----|-8----8---|-5----5---|-8----8-5---5-8--7-5-|
Ab|-4-3--3-3--|-6-6--8-6-|-3-3--3-3-|-6-6--6-3---3-6--5-3-|
Eb|-2-1----1--|---4----4-|---1----1-|---4-----------------|
    .                                                                        

Intro B

Eb|-----------------|-----------------|-----------------|-----------|
Bb|-----------------|-----------------|-----------------|-----------|
Gb|-----------------|-----------------|-----------------|-----------|
Db|-10-9------------|-----------------|-----------------|-----------|
Ab|--8-7------------|-----------------|-----------------|-----------|
Eb|-------0-0-0-0-0-|-000-0-000-0-0-0-|-000-0-000-0-0-0-|-000-0-000-|
          . . . . .   ... . ... . . .   ... . ... . . .   ... . ...

Eb|----------------|-----------------|-----------------|-----------|
Bb|----------------|-----------------|-----------------|-----------|
Gb|----------------|-----------------|-----------------|-----------|
Db|----------------|-----------------|-----------------|-----------|
Ab|-6-9------9-----|-----------------|-----------------|-----------|
Eb|-4-7--7-7-7-7-7-|-777-7-777-7-7-7-|-777-7-777-7-7-7-|-777-7-777-|
         . .   . .   ... . ... . . .   ... . ... . . .   ... . ...

Pre-Verse A

(Rythm. Part)|
Eb|-------------|---------------|---------------|---------------|---------------|---------------|
Bb|-------------|---------------|---------------|---------------|---------------|---------------|
Gb|-------------|---------------|---------------|---------------|---------------|---------------|
Db|-------------|-3--3--------3-|---------------|-5--5--------5-|---------------|-3--3--------3-|
Ab|-2--2------2-|-1--1-1-1-11-1-|-2--2--------2-|-3--3-3-3-33-3-|-2--2--------2-|-1--1-1-1-11-1-|
Eb|-0--0-0-00-0-|---------------|-0--0-0-0-00-0-|---------------|-0--0-0-0-00-0-|---------------|
         . ..          . . ..          . . ..          . . ..          . . ..          . . ..   |


|---------------|
|---------------|
|---------------|
|---------------|
|-2--2----------|
|-0--0-0-0-0000-|
       . . ....


(Lead Part)|
Eb|-------------|---------------|---------------|---------------|---------------|
Bb|-------------|---------------|---------------|---------------|---------------|
Gb|-------------|---------------|---------------|---------------|---------------|
Db|-------------|---------------|-----------7-9-|-10--9--7------|---------------|
Ab|-8-7---5-----|------------10-|-7----9-10-----|----------10-9-|-7-------5-----|
Eb|---------7-8-|-6--------6----|---------------|---------------|-----------7-8-|


|---------------|---------------|
|---------------|---------------|
|---------------|---------------|
|---------------|---------------|
|----------10-7-|-(7)-----------|
|-6-------------|---------------|



Pre-Verse B

Eb|--------|-----|---------------|----------------|--------|-----|---------------|------------------|
Bb|--------|-----|---------------|----------------|--------|-----|---------------|------------------|
Gb|-5--7-4-|-(4)-|-5--7-4--------|----------------|-5--7-4-|-(4)-|-5--7-4--------|------------R-----|
Db|-5--7-4-|-(4)-|-5--7-4--------|----------------|-5--7-4-|-(4)-|-5--7-4--------|------------------|
Ab|-3--5-2-|-(2)-|-3--5-2--2-222-|-222-222-222-22-|-3--5-2-|-(2)-|-3--5-2--2-222-|-222-22-5-4---5-3-|
Eb|--------|-----|---------------|----------------|--------|-----|---------------|--------3-2---3-1-|
                           . ...   ... ... ... ..                          . ...   ... ..

Verse

Eb|--------|-----|---------------|----------------|--------|-----|---------------|----------------|
Bb|--------|-----|---------------|----------------|--------|-----|---------------|----------------|
Gb|-5--7-4-|-(4)-|-5--7-4--------|----------------|-5--7-4-|-(4)-|-5--7-4--------|----------------|
Db|-5--7-4-|-(4)-|-5--7-4--------|----------------|-5--7-4-|-(4)-|-5--7-4--------|----------------|
Ab|-3--5-2-|-(2)-|-3--5-2--2-222-|-222-222-222-22-|-3--5-2-|-(2)-|-3--5-2--2-222-|-222-222-222-22-|
Eb|--------|-----|---------------|----------------|--------|-----|---------------|----------------|
                           . ...   ... ... ... ..                          . ...   ... ... ... ..

Eb|--------|------------|----------|---------------|--------|-----|---------------|---------------|
Bb|--------|------------|----------|---------------|--------|-----|---------------|---------------|
Gb|-5--9-7-|-(7)--10--9-|-7--------|------------10-|-5--7-4-|-(4)-|-5--7-4--------|---------------| 
Db|-5--9-7-|-(7)--10--9-|-7--------|------------10-|-5--7-4-|-(4)-|-5--7-4--------|---------------| 
Ab|-3--7-5-|-(5)---8--7-|-5--5-555-|-555-555-55--8-|-3--5-2-|-(2)-|-3--5-2--2-222-|-22-5--4-4-4-4-|
Eb|--------|------------|----------|---------------|--------|-----|---------------|----3--2-2-2-2-|
                             . ...   ... ... ...                            . ...   ..

Chorus

Eb|----------------|----------------|----------------|---------|
Bb|----------------|----------------|----------------|---------|
Gb|----------------|----------------|--------------3-|-3--2----|
Db|-2------------4-|-2------------4-|-5------------3-|-3--2--3-|
Ab|-2------------4-|-2------------4-|-5------------1-|-1--0--3-|
Eb|-0--0-000-000-2-|-0--0-000-000-2-|-3--3-333-333---|-------1-|
       . ... ...        . ... ...        . ... ...

Eb|----------------|----------------|----------------|---------|       
Bb|----------------|----------------|----------------|---------| in the
Gb|----------------|----------------|--------------3-|-3--2--5-| last repeat
Db|-2------------4-|-2------------4-|-5------------3-|-3--2--5-| play the last  
Ab|-2------------4-|-2------------4-|-5------------1-|-1--0--3-| bar one times
Eb|-0--0-000-000-2-|-0--0-000-000-2-|-3--3-333-333---|---------| more
       . ... ...        . ... ...        . ... ...


Bridge to Solo

(Rythm. Part)
Eb|-----------------|-----------------|-----------------|--------------|
Bb|-----------------|-----------------|-----------------|--------------|
Gb|-----------------|-----------------|-----------------|--------------| 
Db|------------4--4-|------------5--5-|-----------------|--------------|
Ab|------------2--2-|------------3--3-|------------7--7-|------------2-|
Eb|-0000000000------|-0000000000------|-0000000000-5--5-|-0000000000-0-|
    ..........        ..........        ..........        ..........

(Lead Part)
Eb|-----------------|------------3--3-|-2222222222-5--5-|--------------|
Bb|-5555555555------|-----------------|-----------------|--------------| 
Gb|------------4--4-|-5555555555------|-----------------|-4444444444-4-|
Db|-----------------|-----------------|-----------------|--------------|
Ab|-----------------|-----------------|-----------------|--------------|
Eb|-----------------|-----------------|-----------------|--------------|


Solo A

Eb|-----------------|-----------------|-----------------|------------------|
Bb|-----------------|-----------------|-----------------|------------------|
Gb|-----------------|-----------------|-----------------|------------------| not quite
Db|------------5--4-|------------7--6-|------------5--4-|------------------| sure about
Ab|------------3--2-|------------5--4-|------------3--2-|------------8-7-8-| that
Eb|-3333333333------|-3333333333------|-3333333333------|-3333333333-6-5-6-|
    ..........        ..........        ..........        ..........


Solo B

Eb|--------------|--------------|--------------|----------------|                |-----------------|
Bb|--------------|--------------|--------------|----------------| on the last    |-----------------|
Gb|--------------|--------------|--------------|----------------| repeat the last|-----------------|
Db|--------------|--------------|--------------|----------2-----| bar is played  |-----------------|
Ab|--------------|--------------|-2-222-222-22-|-2-222-22-0-5-4-| like this:     |-2-2-2-2-2-2-2-2-|
Eb|-1-111-111-11-|-4-444-444-44-|--------------|------------3-2-|                |-----------------|
    . ... ... ..   . ... ... ..   . ... ... ..   . ... .. . . .                      . . . . . . . .


Outro

Eb|---------------|--------------|---------------|----------|
Bb|---------------|--------------|---------------|----------|
Gb|--------9\8-10-|--------9\8-9-|--------9\8-10-|--------9-|
Db|--------9\8-10-|--------9\8-9-|--------9\8-10-|--------9-|
Ab|--------7\6--8-|--------7\6-7-|--------7\6--8-|--------7-|
Eb|-000000--------|-000000-------|-000000--------|-000000---|
    ......          ......         ......          ......


Description:
------------
. -> palm mute
R -> rest
\ -> slide
()-> let ring
comments
We did not receive enough feedback on this tab! Please rate:
print report bad tab
1 2 3 4 5
I want to post or [tab]
guest
You may want to rate the tab now too:
select rating
Please do not post tabs as comments. Select "correction" instead!