Oops, an error
Loading. Please wait.

Sign tab

version 1
version 1

Whole song

Interactive

by Flow
53,989 views 159 this week
3 commentsread comments
1 2 3 4 5
x 18
add to favorites
×
Save as Personal and add changes to this tab that will be seen only by you. Learn more ›
×
You can save this tab as Personal to edit and correct it or add notes. All changes will be seen only by you. Learn more »
launch autoscroll
font size
0
reset
how to read this tab
guitar tuner
edit
Autoscroll
slow
fast
+/-
esc
set tempo
stop
Author
Difficulty
intermediate
Sign - Flow

Tabbed by: SogeKingU (ManDoRoKoT ^_^)
E-mail: rokot_mando@yahoo.com

Tuning: Standard


[Intro]

Lead Guitar(Distorted)
      D         A        Bm        F#m        G         A       Bm
e|-----2---|-----0---|-----2---|---------|---------|---------|--7~--|
B|-------3-|-------2-|-------3-|-----2---|-----3---|-----5---|--7~--|
G|---2-----|---------|---------|-------2-|-------4-|-------6-|--7~--|
D|-0-------|---2-----|---4-----|---------|---------|---------|--9~--|
A|---------|-0-------|-2-------|---4-----|---5-----|---7-----|--9~--|
E|---------|---------|---------|-2-------|-3-------|-5-------|--7~--|

*Pick Slide*

Rhythm Guitar(Distorted)
   G5              A5              B5              D5             
e|---------------|---------------|---------------|----------------|
B|---------------|---------------|---------------|----------------|
G|---------------|---------------|---------------|-7-7-7----------|
D|-5~------------|-7~------------|-9~------------|-7-7-7----------|
A|-5~------------|-7~------------|-9~------------|-5-5-5----------|
E|-3~------------|-5~------------|-7~------------|----------------|

   G5              A5              B5             A5
e|---------------|---------------|-------------|-----|
B|---------------|---------------|-------------|-----|
G|---------------|---------------|-------------|-----|
D|-5~------------|-7~------------|-9~----------|--7~-|
A|-5~------------|-7~------------|-9~----------|--7~-|
E|-3~------------|-5~------------|-7~----------|--5~-|

Lead Guitar(Distorted)
e|-------5-------|-------5-------|-------5-------|-------5--------|
B|---------------|---------------|---------------|---------8-7----|
G|-7-6-7---7-6-7-|-7-6-7---7-6-7-|-7-6-7---7-6-7-|-7-6-7-------7--|
D|---------------|---------------|---------------|----------------|
A|---------------|---------------|---------------|----------------|
E|---------------|---------------|---------------|----------------|

e|-------5-------|-------5-------|-------5-----|--5~-|
B|---------------|---------------|-------------|--5~-|
G|-4-6-7---7-6-7-|-7-6-7---7-6-7-|-4-6-7---7-6-|--6~-|
D|---------------|---------------|-------------|--7~-|
A|---------------|---------------|-------------|--7~-|
E|---------------|---------------|-------------|--5~-|


[Verse I]

Rhythm Guitar(Distorted)
   D5                                      A5                               B5   A5   G5
e|---------------------------------------|--------------------------------|----|----|----|
B|---------------------------------------|--------------------------------|----|----|----|
G|-7-7*-7*-7*-7*-7*-7-7*-7*-7-7*-7*-7*-7-|--------------------------------|----|----|----|
D|-7-7*-7*-7*-7*-7*-7-7*-7*-7-7*-7*-7*-7-|-7-7*-7*-7*-7*-7*-7-7*-7*-7-5-7-|-9~-|-7~-|-5~-|
A|-5-5*-5*-5*-5*-5*-5-5*-5*-5-5*-5*-5*-5-|-7-7*-7*-7*-7*-7*-7-7*-7*-7-5-7-|-9~-|-7~-|-5~-|
E|---------------------------------------|-5-5*-5*-5*-5*-5*-5-5*-5*-5-3-5-|-7~-|-5~-|-3~-|

   D5                                      A5                               B5   A5   G5   A5
e|---------------------------------------|--------------------------------|----|----|----|----|
B|---------------------------------------|--------------------------------|----|----|----|----|
G|-7-7*-7*-7*-7*-7*-7-7*-7*-7-7*-7*-7*-7-|--------------------------------|----|----|----|----|
D|-7-7*-7*-7*-7*-7*-7-7*-7*-7-7*-7*-7*-7-|-7-7*-7*-7*-7*-7*-7-7*-7*-7-5-7-|-9~-|-7~-|-5~-|-7~-|
A|-5-5*-5*-5*-5*-5*-5-5*-5*-5-5*-5*-5*-5-|-7-7*-7*-7*-7*-7*-7-7*-7*-7-5-7-|-9~-|-7~-|-5~-|-7~-|
E|---------------------------------------|-5-5*-5*-5*-5*-5*-5-5*-5*-5-3-5-|-7~-|-5~-|-3~-|-5~-|

Lead Guitar(distorted)

e|---------------------------------------|--------------------------------|-7~-|-5~-|-3~-------|
B|---------------------------------------|--------------------------------|-7~-|-5~-|-3~-------|
G|-7-7*-7*-7*-7*-7*-7-7*-7*-7-7*-7*-7*-7-|--------------------------------|-7~-|-6~-|-4~/12\11-|
D|-7-7*-7*-7*-7*-7*-7-7*-7*-7-7*-7*-7*-7-|-7-7*-7*-7*-7*-7*-7-7*-7*-7-5-7-|-9~-|-7~-|-5~-x--x--|
A|-5-5*-5*-5*-5*-5*-5-5*-5*-5-5*-5*-5*-5-|-7-7*-7*-7*-7*-7*-7-7*-7*-7-5-7-|-9~-|-7~-|-5~/10\9--|
E|---------------------------------------|-5-5*-5*-5*-5*-5*-5-5*-5*-5-3-5-|-7~-|-5~-|-3~-------|


e|-------5-------5-------5-------5-------5-------5-------5-----|-7~-|-5~-|-3~-|-5~-|
B|-------------------------------------------------------------|-7~-|-5~-|-3~-|-5~-|
G|-7-6-7---7-6-7---7-6-7---7-6-7---7-6-7---7-6-7---7-6-7---4-6-|-7~-|-6~-|-4~-|-6~-|
D|-------------------------------------------------------------|-9~-|-7~-|-5~-|-7~-|
A|-------------------------------------------------------------|-9~-|-7~-|-5~-|-7~-|
E|-------------------------------------------------------------|-7~-|-5~-|-3~-|-5~-|

[Refrain I]

Rhythm Guitar(Distorted)
   G5   A5  F#5   B5   E5                    G5                  A
e|----|----|----|----|---------------------|-------------------|-5-5-5-5-5-5-5-5-|
B|----|----|----|----|---------------------|-------------------|-5-5-5-5-5-5-5-5-|
G|----|----|----|----|---------------------|-------------------|-6-6-6-6-6-6-6-6-|
D|-5~-|-7~-|-4~-|-9~-|-2-2*-2*-2*-2*-2*-2*-|-5-5*-5*-5-5*-5*-5-|-7-7-7-7-7-7-7-7-|
A|-5~-|-7~-|-4~-|-9~-|-2-2*-2*-2*-2*-2*-2*-|-5-5*-5*-5-5*-5*-5-|-7-7-7-7-7-7-7-7-|
E|-3~-|-5~-|-2~-|-7~-|-0-0*-0*-0*-0*-0*-0*-|-3-3*-3*-3-3*-3*-3-|-5-5-5-5-5-5-5-5-|

Lead Guitar(Distorted)

e|-------5-------|-------5-------|-------5-------|-------5-------|-----------|
B|---------------|---------------|---------------|---------8-7---|----/7--5~-|
G|-6-7-6---7-6-7-|-6-7-6---7-6-7-|-6-7-6---7-6-7-|-6-7-6-------7-|-4~--------|
D|---------------|---------------|---------------|---------------|-----------|
A|---------------|---------------|---------------|---------------|-----------|
E|---------------|---------------|---------------|---------------|-----------|

[Chorus I]

Rhythm Guitar(Distorted)
   D5   A5   B5  F#5   G5   D5   A5         D5   A5   B5  F#5   G5   A5   B5   A5   G5   B5
e|----|----|----|----|----|----|----------|----|----|----|----|----|----|----|----|----|----|
B|----|----|----|----|----|----|----------|----|----|----|----|----|----|----|----|----|----|
G|-7~-|----|----|----|----|-7~-|----6-7-9-|-7~-|----|----|----|----|----|----|----|----|----|
D|-7~-|-7~-|-9~-|-4~-|-5~-|-7~-|-7~-x-x-x-|-7~-|-7~-|-9~-|-4~-|-5~-|-7~-|-9~-|-7~-|-5~-|-7~-|
A|-5~-|-7~-|-9~-|-4~-|-5~-|-5~-|-7~-4-5-7-|-5~-|-7~-|-9~-|-4~-|-5~-|-7~-|-9~-|-7~-|-5~-|-7~-|
E|----|-5~-|-7~-|-2~-|-3~-|----|-5~-------|----|-5~-|-7~-|-2~-|-3~-|-5~-|-7~-|-5~-|-3~-|-5~-|

Lead Guitar(Distorted)

e|-5~-|-5~-|-7~-|-9~--|-7~-|-5~-|-9~--12~-|-5~-|-5~-|-7~-|-9~--|-7~-|-9~--|-10~-|-9~--|-10~-|-12~-|
B|-7~-|-5~-|-7~-|-10~-|-8~-|-7~-|-10~-10~-|-7~-|-5~-|-7~-|-10~-|-8~-|-10~-|-12~-|-10~-|-8~--|-10~-|
G|-7~-|-6~-|-7~-|-11~-|-7~-|-7~-|-9~--9~--|-7~-|-6~-|-7~-|-11~-|-7~-|-9~--|-11~-|-9~--|-7~--|-9~--|
D|-7~-|-7~-|-9~-|-11~-|-9~-|-7~-|-11~-11~-|-7~-|-7~-|-9~-|-11~-|-9~-|-11~-|-9~--|-11~-|-9~--|-11~-|
A|-5~-|-7~-|-9~-|-9~--|----|-5~-|---------|-5~-|-7~-|-9~-|-9~--|----|-----|-----|-----|-----|-----|
E|----|-5~-|-7~-|-----|----|----|---------|----|-5~-|-7~-|-----|----|-----|-----|-----|-----|-----|

[Instrumental]

Rhythm Guitar(Distorted)
   G5              A5              B5             A5
e|---------------|---------------|-------------|-----|
B|---------------|---------------|-------------|-----|
G|---------------|---------------|-------------|-----|
D|-5~------------|-7~------------|-9~----------|--7~-|
A|-5~------------|-7~------------|-9~----------|--7~-|
E|-3~------------|-5~------------|-7~----------|--5~-|

Lead Guitar(Distorted)

e|-------5-------|-------5-------|-------5-----|--5~-|
B|---------------|---------------|-------------|--5~-|
G|-7-6-7---7-6-7-|-7-6-7---7-6-7-|-7-6-7---7-6-|--6~-|
D|---------------|---------------|-------------|--7~-|
A|---------------|---------------|-------------|--7~-|
E|---------------|---------------|-------------|--5~-|


[Verse II]

Rhythm Guitar(Distorted)
   D5                                      A5                               B5   A5   G5   A5
e|---------------------------------------|--------------------------------|----|----|----|----|
B|---------------------------------------|--------------------------------|----|----|----|----|
G|-7-7*-7*-7*-7*-7*-7-7*-7*-7-7*-7*-7*-7-|--------------------------------|----|----|----|----|
D|-7-7*-7*-7*-7*-7*-7-7*-7*-7-7*-7*-7*-7-|-7-7*-7*-7*-7*-7*-7-7*-7*-7-5-7-|-9~-|-7~-|-5~-|-7~-|
A|-5-5*-5*-5*-5*-5*-5-5*-5*-5-5*-5*-5*-5-|-7-7*-7*-7*-7*-7*-7-7*-7*-7-5-7-|-9~-|-7~-|-5~-|-7~-|
E|---------------------------------------|-5-5*-5*-5*-5*-5*-5-5*-5*-5-3-5-|-7~-|-5~-|-3~-|-5~-|

Lead Guitar(Distorted)

e|-------5-------5-------5-------5-------5-------5-------5-----|-7~-|-5~-|-3~-|-5~-|
B|-------------------------------------------------------------|-7~-|-5~-|-3~-|-5~-|
G|-7-6-7---7-6-7---7-6-7---7-6-7---7-6-7---7-6-7---7-6-7---4-6-|-7~-|-6~-|-4~-|-6~-|
D|-------------------------------------------------------------|-9~-|-7~-|-5~-|-7~-|
A|-------------------------------------------------------------|-9~-|-7~-|-5~-|-7~-|
E|-------------------------------------------------------------|-7~-|-5~-|-3~-|-5~-|


[Refrain II]

Rhythm Guitar(Distorted)
   G5   A5  F#5   B5   E5                    G5                  A
e|----|----|----|----|---------------------|-------------------|-5-5-5-5-5-5-5-5-|
B|----|----|----|----|---------------------|-------------------|-5-5-5-5-5-5-5-5-|
G|----|----|----|----|---------------------|-------------------|-6-6-6-6-6-6-6-6-|
D|-5~-|-7~-|-4~-|-9~-|-2-2*-2*-2*-2*-2*-2*-|-5-5*-5*-5-5*-5*-5-|-7-7-7-7-7-7-7-7-|
A|-5~-|-7~-|-4~-|-9~-|-2-2*-2*-2*-2*-2*-2*-|-5-5*-5*-5-5*-5*-5-|-7-7-7-7-7-7-7-7-|
E|-3~-|-5~-|-2~-|-7~-|-0-0*-0*-0*-0*-0*-0*-|-3-3*-3*-3-3*-3*-3-|-5-5-5-5-5-5-5-5-|

Lead Guitar(Distorted)

e|-------5-------|-------5-------|-------5-------|-------5-------|------------|
B|---------------|---------------|---------------|---------8-7---|----/7--10~-|
G|-6-7-6---7-6-7-|-6-7-6---7-6-7-|-6-7-6---7-6-7-|-6-7-6-------7-|-4~---------|
D|---------------|---------------|---------------|---------------|------------|
A|---------------|---------------|---------------|---------------|------------|
E|---------------|---------------|---------------|---------------|------------|


[Chorus II]

Rhythm Guitar(Distorted)
   D5   A5   B5  F#5   G5   D5   A5         D5   A5   B5  F#5   G5   A5   B5   A5   G5   B5
e|----|----|----|----|----|----|----------|----|----|----|----|----|----|----|----|----|----|
B|----|----|----|----|----|----|----------|----|----|----|----|----|----|----|----|----|----|
G|-7~-|----|----|----|----|-7~-|----6-7-9-|-7~-|----|----|----|----|----|----|----|----|----|
D|-7~-|-7~-|-9~-|-4~-|-5~-|-7~-|-7~-x-x-x-|-7~-|-7~-|-9~-|-4~-|-5~-|-7~-|-9~-|-7~-|-5~-|-7~-|
A|-5~-|-7~-|-9~-|-4~-|-5~-|-5~-|-7~-4-5-7-|-5~-|-7~-|-9~-|-4~-|-5~-|-7~-|-9~-|-7~-|-5~-|-7~-|
E|----|-5~-|-7~-|-2~-|-3~-|----|-5~-------|----|-5~-|-7~-|-2~-|-3~-|-5~-|-7~-|-5~-|-3~-|-5~-|

Lead Guitar(Distorted)

e|-5~-|-5~-|-7~-|-9~--|-7~-|-5~-|-9~--12~-|-5~-|-5~-|-7~-|-9~--|-7~-|-9~--|-10~-|-9~--|-10~-|-12~-|
B|-7~-|-5~-|-7~-|-10~-|-8~-|-7~-|-10~-10~-|-7~-|-5~-|-7~-|-10~-|-8~-|-10~-|-12~-|-10~-|-8~--|-10~-|
G|-7~-|-6~-|-7~-|-11~-|-7~-|-7~-|-9~--9~--|-7~-|-6~-|-7~-|-11~-|-7~-|-9~--|-11~-|-9~--|-7~--|-9~--|
D|-7~-|-7~-|-9~-|-11~-|-9~-|-7~-|-11~-11~-|-7~-|-7~-|-9~-|-11~-|-9~-|-11~-|-9~--|-11~-|-9~--|-11~-|
A|-5~-|-7~-|-9~-|-9~--|----|-5~-|---------|-5~-|-7~-|-9~-|-9~--|----|-----|-----|-----|-----|-----|
E|----|-5~-|-7~-|-----|----|----|---------|----|-5~-|-7~-|-----|----|-----|-----|-----|-----|-----|


[Guitar Solo]

Acoustic Guitar

e|--------------------------------------------------------|
B|-10-10-10-8-7-8-7------10--------------7-8-7-8/10-8-7---|
G|------------------7-/9----9-\7-----7-9----------------7-|
D|-------------------------------7/9----------------------|
A|--------------------------------------------------------|
E|--------------------------------------------------------|

e|--------10-----10--/12-12-12-9------9--10-10-------9--10-10----14-14-14----15-15-|
B|-/10-10-10--10-10------------10--10-10-12-12-10-10-10-12-12/14-14-14-14/15-15-15-|
G|---------------------------------------------------------------------------------|
D|---------------------------------------------------------------------------------|
A|---------------------------------------------------------------------------------|
E|---------------------------------------------------------------------------------|

Rhythm Guitar(Distorted)

e|---------------|---------------|---------------|---------------|
B|---------------|---------------|---------------|---------------|
G|---------------|---------------|---------------|-7*-7*-7*-7*-7-|
D|-5*-5*-5*-5*-5-|-7*-7*-7*-7*-7-|-9*-9*-9*-9*-9-|-7*-7*-7*-7*-7-|
A|-5*-5*-5*-5*-5-|-7*-7*-7*-7*-7-|-9*-9*-9*-9*-9-|-5*-5*-5*-5*-5-|
E|-3*-3*-3*-3*-3-|-5*-5*-5*-5*-5-|-7*-7*-7*-7*-7-|---------------|

e|---------------|---------------|---------------|---------------|
B|---------------|---------------|---------------|---------------|
G|---------------|---------------|---------------|-7*-7*-7*-7*-7-|
D|-5*-5*-5*-5*-5-|-7*-7*-7*-7*-7-|-9*-9*-9*-9*-9-|-7*-7*-7*-7*-7-|
A|-5*-5*-5*-5*-5-|-7*-7*-7*-7*-7-|-9*-9*-9*-9*-9-|-5*-5*-5*-5*-5-|
E|-3*-3*-3*-3*-3-|-5*-5*-5*-5*-5-|-7*-7*-7*-7*-7-|---------------|

Lead Guitar(Distorted)

e|-14-15-14---------------------17-------------------|
B|----------15b--14-15-17-15-14----17-15-14-15-14----|
G|------------------------------------------------14-|
D|---------------------------------------------------|
A|---------------------------------------------------|
E|---------------------------------------------------|

e|------------------------------------------------------------17-|
B|----15-12--------12----12-15--14----12-15-14-15-17-14-15-17----|
G|-11--------11/14----14-----------14----------------------------|
D|---------------------------------------------------------------|
A|---------------------------------------------------------------|
E|---------------------------------------------------------------|


[Refrain III]

Rhythm Guitar(Distorted)
   G5   A5  F#5   B5   E5                    G5                  A
e|----|----|----|----|---------------------|-------------------|-5-5-5-5-5-5-5-5-|
B|----|----|----|----|---------------------|-------------------|-5-5-5-5-5-5-5-5-|
G|----|----|----|----|---------------------|-------------------|-6-6-6-6-6-6-6-6-|
D|-5~-|-7~-|-4~-|-9~-|-2-2*-2*-2*-2*-2*-2*-|-5-5*-5*-5-5*-5*-5-|-7-7-7-7-7-7-7-7-|
A|-5~-|-7~-|-4~-|-9~-|-2-2*-2*-2*-2*-2*-2*-|-5-5*-5*-5-5*-5*-5-|-7-7-7-7-7-7-7-7-|
E|-3~-|-5~-|-2~-|-7~-|-0-0*-0*-0*-0*-0*-0*-|-3-3*-3*-3-3*-3*-3-|-5-5-5-5-5-5-5-5-|

Lead Guitar(Distorted)

e|-------5-------|-------5-------|-------5-------|-------5-------|-----------|
B|---------------|---------------|---------------|---------8-7---|----/7--5~-|
G|-6-7-6---7-6-7-|-6-7-6---7-6-7-|-6-7-6---7-6-7-|-6-7-6-------7-|-4~--------|
D|---------------|---------------|---------------|---------------|-----------|
A|---------------|---------------|---------------|---------------|-----------|
E|---------------|---------------|---------------|---------------|-----------|

e|-----12h14p12h14p12h14p12t17p12h14p12h14p12h14p12t17p12h14p12h14p12t17-|
B|-10~-------------------------------------------------------------------|
G|-----------------------------------------------------------------------|
D|-----------------------------------------------------------------------|
A|-----------------------------------------------------------------------|
E|-----------------------------------------------------------------------|

[Bridge]

Lead guitar(Distorted)

strumming D-A-Bm-F#m-G-D-A

Rhythm Guitar(Distorted)

e|-----------------------------|---------------------|---------------------|---------------------|
B|-----------------------------|---------------------|---------------------|---------------------|
G|-----------------------------|---------------------|---------------------|---------------------|
D|-7-6-7-8-9-9*-9*-9*-9*-9*-9*-|-7-7*-7*-7*-7*-7*-7*-|-5-5*-5*-5*-5*-5*-5*-|-4-4*-4*-4*-4*-4*-4*-|
A|-7-6-7-8-9-9*-9*-9*-9*-9*-9*-|-7-7*-7*-7*-7*-7*-7*-|-5-5*-5*-5*-5*-5*-5*-|-4-4*-4*-4*-4*-4*-4*-|
E|-5-4-5-6-7-7*-7*-7*-7*-7*-7*-|-5-5*-5*-5*-5*-5*-5*-|-3-3*-3*-3*-3*-3*-3*-|-2-2*-2*-2*-2*-2*-2*-|

e|---------------------|---------------------|-----------------|
B|---------------------|---------------------|-----------------|
G|---------------------|---------------------|-----------------|
D|-5-5*-5*-5*-5*-5*-5*-|-7-7*-7*-7*-7*-7*-7*-|-9-9-9-9-9-9-9-9-|
A|-5-5*-5*-5*-5*-5*-5*-|-7-7*-7*-7*-7*-7*-7*-|-9-9-9-9-9-9-9-9-|
E|-3-3*-3*-3*-3*-3*-3*-|-5-5*-5*-5*-5*-5*-5*-|-7-7-7-7-7-7-7-7-|

Lead Guitar(Distortion)

e|-----------------|-----------------|-----------------|-----------------|
B|-7-7-7-7-7-7-7-7-|-5-5-5-5-5-5-5-5-|-8-8-8-8-8-8-8-8-|-7-7-7-7-7-7-7-7-|
G|-7-7-7-7-7-7-7-7-|-6-6-6-6-6-6-6-6-|-7-7-7-7-7-7-7-7-|-6-6-6-6-6-6-6-6-|
D|-9-9-9-9-9-9-9-9-|-7-7-7-7-7-7-7-7-|-5-5-5-5-5-5-5-5-|-4-4-4-4-4-4-4-4-|
A|-----------------|-----------------|-----------------|-----------------|
E|-----------------|-----------------|-----------------|-----------------|

e|-----------------|-------------------------|-------------------------|
B|-8-8-8-8-8-8-8-8-|-10-10-10-10-10-10-10-10-|-12-12-12-12-12-12-12-12-|
G|-7-7-7-7-7-7-7-7-|-9--9--9--9--9--9--9--9--|-11-11-11-11-11-11-11-11-|
D|-5-5-5-5-5-5-5-5-|-7--7--7--7--7--7--7--7--|-9--9--9--9--9--9--9--9--|
A|-----------------|-------------------------|-------------------------|
E|-----------------|-------------------------|-------------------------|


[Chorus III]

Rhythm Guitar(Distorted)
   D5   A5   B5  F#5   G5   D5   A5
e|----|----|----|----|----|----|----------|
B|----|----|----|----|----|----|----------|
G|-7~-|----|----|----|----|-7~-|----6-7-9-|
D|-7~-|-7~-|-9~-|-4~-|-5~-|-7~-|-7~-x-x-x-|
A|-5~-|-7~-|-9~-|-4~-|-5~-|-5~-|-7~-4-5-7-|
E|----|-5~-|-7~-|-2~-|-3~-|----|-5~-------|

   D5   A5   B5  F#5   G5   A5   B5   A5   G5   B5   B5   A5   G5   A5
e|----|----|----|----|----|----|----|----|----|----|----|----|----|----|
B|----|----|----|----|----|----|----|----|----|----|----|----|----|----|
G|-7~-|----|----|----|----|----|----|----|----|----|----|----|----|----|
D|-7~-|-7~-|-9~-|-4~-|-5~-|-7~-|-9~-|-7~-|-5~-|-7~-|-9~-|-7~-|-5~-|-7~-|
A|-5~-|-7~-|-9~-|-4~-|-5~-|-7~-|-9~-|-7~-|-5~-|-7~-|-9~-|-7~-|-5~-|-7~-|
E|----|-5~-|-7~-|-2~-|-3~-|-5~-|-7~-|-5~-|-3~-|-5~-|-7~-|-5~-|-3~-|-5~-|

Lead Guitar(Distorted)

e|-5~-|-5~-|-7~-|-9~--|-7~-|-5~-|-9~--12~-|
B|-7~-|-5~-|-7~-|-10~-|-8~-|-7~-|-10~-10~-|
G|-7~-|-6~-|-7~-|-11~-|-7~-|-7~-|-9~--9~--|
D|-7~-|-7~-|-9~-|-11~-|-9~-|-7~-|-11~-11~-|
A|-5~-|-7~-|-9~-|-9~--|----|-5~-|---------|
E|----|-5~-|-7~-|-----|----|----|---------|

e|-5~-|-5~-|-7~-|-9~--|-7~-|-9~--|-10~-|-9~--|-7~--|-9~--|-14~-|-12~-|-10~-|-12~-|
B|-7~-|-5~-|-7~-|-10~-|-8~-|-10~-|-12~-|-10~-|-8~--|-10~-|-12~-|-10~-|-8~--|-10~-|
G|-7~-|-6~-|-7~-|-11~-|-7~-|-9~--|-11~-|-9~--|-7~--|-9~--|-11~-|-9~--|-7~--|-9~--|
D|-7~-|-7~-|-9~-|-11~-|-9~-|-11~-|-9~--|-11~-|-9~--|-11~-|-----|-11~-|-9~--|-11~-|
A|-5~-|-7~-|-9~-|-9~--|----|-----|-----|-----|-----|-----|-----|-----|-----|-----|
E|----|-5~-|-7~-|-----|----|-----|-----|-----|-----|-----|-----|-----|-----|-----|

[Outro]

Rhythm Guitar(Distorted)
   G5              A5              B5              D5             
e|---------------|---------------|---------------|----------------|
B|---------------|---------------|---------------|----------------|
G|---------------|---------------|---------------|-7-7-7----------|
D|-5~------------|-7~------------|-9~------------|-7-7-7----------|
A|-5~------------|-7~------------|-9~------------|-5-5-5----------|
E|-3~------------|-5~------------|-7~------------|----------------|

   G5              A5              B5             A5
e|---------------|---------------|---------------|-----|
B|---------------|---------------|---------------|-----|
G|---------------|---------------|---------------|--7~-|
D|-5~------------|-7~------------|-9~------------|--7~-|
A|-5~------------|-7~------------|-9~------------|--5~-|
E|-3~------------|-5~------------|-7~------------|-----|

Lead Guitar(Distorted)
e|-------5-------|-------5-------|-------5-------|-------5--------|
B|---------------|---------------|---------------|---------8-7----|
G|-7-6-7---7-6-7-|-7-6-7---7-6-7-|-7-6-7---7-6-7-|-7-6-7-------7--|
D|---------------|---------------|---------------|----------------|
A|---------------|---------------|---------------|----------------|
E|---------------|---------------|---------------|----------------|

e|-------5-------|-------5-------|-------5---------|
B|---------------|---------------|-----------------|
G|-7-6-7---7-6-7-|-7-6-7---7-6-7-|-7-6-7---7-6-7\\-|
D|---------------|---------------|-----------------|
A|---------------|---------------|-----------------|
E|---------------|---------------|-----------------|

*This is my first tab in ultimate-guitar.com. I hope you like it.*


************************************

| /   slide up
| \   slide down
| h   hammer-on
| p   pull-off
| ~   Let it Ring
| x   Mute note
| b   Bend
| *   Palm Mute

************************************

            
            
Suggest correction
Creating personal tab
Creating personal tab
You can edit any tab online and save it as your Personal.

You can edit, replace or remove any tab part or add personal notes – all changes will be seen only by you.

Personal tabs can be accessed anytime from any device, even offline.
Learn more »
comments
print report bad tab
3 comments total.
0 reply
Dabeastvader 134 Apr 20, 2010 12:03 PM

Great job man :D

0 reply
NaPoleon07 83 Jul 23, 2010 07:00 PM

excellent! 5 star for you dude =)

0 reply
Ramsaur 42 Mar 12, 2012 06:55 PM

great! I love songs in the Key of D!

guest
You may want to rate the tab now too:
select rating
Wanna post a correction for this tab? Suggest correction