Oops, an error
Loading. Please wait.

Blue Monday Tab

version 1
version 1

Whole song

Interactive

by Flunk
20,483 views 21 this week
2 commentsread comments
1 2 3 4 5
x 4
add to favorites
launch autoscroll
font size
0
reset
how to read this tab
guitar tuner
×
Best way to learn
"Blue Monday"
Autoscroll
slow
fast
+/-
esc
set tempo
stop
Author
----------------------------------------------------------------------------
                             SONG NAME - Band Name
----------------------------------------------------------------------------
Tabbed by: j_hawker
Email: j_hawker@comcast.net

Tuning: Standard

Found this while I was looking for Orgy's cover of New Order's Blue Monday.

There's really only one progression through the entire song; the weird flanged part
(beginning at 1:25) is just the A-string notes of the power chords. This is the way
it's played on the track; you can just adjust the power chord finger pattern to low
E to save running up and down the board, if you want. I personally think it sounds
better with the sliding noises.


e|----------------------------0--------------------------------------------|
B|----------------------------6---------------------------------6---5------|
G|-------9--------5--------7-------------12---------5--------7---7---7-----|
D|------9-9------5-5------7-7----------12--12------5-5------7-7---7---7----|
A|--7-7------3-3------5-5--------10-10---------3-3------5-5----------------|
E|-------------------------------------------------------------------------|

Aaand... that's it. Seriously. :P

============================================================================
Suggest correction
comments
print report bad tab
2 comments total.
0 reply
gone 30 Feb 02, 2005 07:00 PM

I love this song!

0 reply
TORNography 10 Aug 30, 2005 08:00 PM

Thats the most chilled song I've hrad by far in tha last month.
Thanks for tabbing it. but...

I prefere to play the first chord in fret 8 like this:

e|-------------
B|-------------
G|--------10---
D|------10--10-
A|--8-8--------
E|-------------

If you just play the A-string you can figure it out a little bit better I guess.
But after all, thanks for tabbing this song.


TORN(ography.com)

guest
You may want to rate the tab now too:
select rating
Wanna post a correction for this tab? Suggest correction