Oops, an error
Loading. Please wait.

Gun In Hand Tab

51 views 1 this week
no commentswrite comment
1 2 3 4 5
please rate
add to favorites
launch autoscroll
font size
0
reset
how to read this tab
guitar tuner
Autoscroll
slow
fast
+/-
esc
set tempo
stop
Help us to improve Ultimate-Guitar.com Take our survey!
×
Song: Gun in Your Hand
Artist: Flybanger (Jar)
Album: Harsh and Discord
As tabbed by Joe Muggah
joe_the_man3@hotmail.com

Dropped D tuning

Riff 1 (palm muted)
e------------------------------------------------------------
B------------------------------------------------------------
G------------------------------------------------------------
D------------------------------------------------------------
A--5--5-5--5-5--5-5-5--5--5-5--5--5-5--5-5--5-5-5--5--5-5----
D--0--0-0--0-0--0-0-0--0--0-0--0--0-0--0-0--0-0-0--0--0-0----

Riff 2 
e------------------------------------------------------------
B------------------------------------------------------------
G------------------------------------------------------------
D-----------3---0---3----------------------------------------
A--5--5-5---3---0---3--5--5-5--5--5-5--5-5--5-5-5--5--5-5----
D--0--0-0---3---0---3--0--0-0--0--0-0--0-0--0-0-0--0--0-0----

Verse                                         Fill
e--------------------------------------------|---------------
B--------------------------------------------|---------------
G--------------------------------------------|---5^----------
D--0m--0m-0m--3---0---3---0m--0m-0m--3^------|---------------
A--0m--0m-0m--3---0---3---0m--0m-0m--3^------|---------------
D--0m--0m-0m--3---0---3---0m--0m-0m--3^------|---------------
("I know what it is you want...")

Pre-Chorus
e------------------------------------------------------------
B------------------------------------------------------------
G------------------------------------------------------------
D--0--0--3--0--3--0-0-0--3--0--3--0--3-----------------------
A--0--0--3--0--3--0-0-0--3--0--3--0--3-----------------------
D--0--0--3--0--3--0-0-0--3--0--3--0--3-----------------------
("This rejection...")

Chorus
e------------------------------------------------------------
B------------------------------------------------------------
G-4--4-4-4--4-4-----------------7--7-7-7--7-7----------------
D-4--4-4-4--4-4--3--3-3-3--3-3--7--7-7-7--7-7--5--5-5-5--5-5-
A-2--2-2-2--2-2--3--3-3-3--3-3--5--5-5-5--5-5--5--5-5-5--5-5-
D----------------3--3-3-3--3-3-----------------5--5-5-5--5-5-
("Let out...on me...")

Post-Chorus A (Guitar 1)
e------------------------------------------------------------
B------------------------------------------------------------
G------------------------------------------------------------
D--7--7--3-3-3-3--7--7--3-3-3-3--7--7--3-3-3-3---------------
A--7--7--3-3-3-3--7--7--3-3-3-3--7--7--3-3-3-3---------------
D--7--7--3-3-3-3--7--7--3-3-3-3--7--7--3-3-3-3--5^--0--5^--0-
("Call it meltdown...")

Post-Chorus B (Guitar 2)
e------------------------------------------------------------
B------------------------------------------------------------
G--14-14-14--10--10--10--14-14-14--10--10--10----------------
D---x--x--x---x---x---x---x--x--x---x---x---x----------------
A--12-12-12---8---8---8--12-12-12---8---8---8----------------
D------------------------------------------------------------

Bridge 1 (palm muted)
e------------------------------------------------------------
B------------------------------------------------------------
G------------------------------------------------------------
D--0-0-0-0-0-0-0-0--3-3-3-3--1-1-1-1--0-0-0-0-0-0-0-0--------
A--0-0-0-0-0-0-0-0--3-3-3-3--1-1-1-1--0-0-0-0-0-0-0-0--------
D--0-0-0-0-0-0-0-0--3-3-3-3--1-1-1-1--0-0-0-0-0-0-0-0--------

(continued)
e------------------------------------------------------------
B------------------------------------------------------------
G------------------------------------------------------------
D--3-3-3-3--5-5--1-1-----------------------------------------
A--3-3-3-3--5-5--1-1-----------------------------------------
D--3-3-3-3--5-5--1-1-----------------------------------------

Solo 1 (the notes with the '.' over them are played by 
switching the pickups off and on)
                                              .  .  .  .
e------------------------------------------------------------
B--------------------------------10^-----10--13-10-12-10-----
G--13^----12-10-13---------------10^--12---------------------
D------------------12--12p10h12------------------------------
A------------------------------------------------------------
D------------------------------------------------------------

(continued)
    .  .  .  .   .  .  .  .   .  .  .  .
e------------------------------------------------------------
B--13-10-12-10--13-10-12-10--13-10-12-10---15^--13p10-8-10---
G------------------------------------------------------------
D------------------------------------------------------------
A------------------------------------------------------------
D------------------------------------------------------------

(continued)
e--15^----12------------------------------------------------
B--15^----12------------------------------------------------
G------------------------------------------------------------
D------------------------------------------------------------
A------------------------------------------------------------
D------------------------------------------------------------

Bridge 2 
e------------------------------------------------------------
B------------------------------------------------------------
G------------------------------------------------------------
D--8-----87-7-----75-5-----53--3m-3m-3m-3m-3m-3m-3m--0-1--
A--8-----87-7-----75-5-----53--3m-3m-3m-3m-3m-3m-3m--0-1--
D--8-----87-7-----75-5-----53--3m-3m-3m-3m-3m-3m-3m--0-1--

(continued)
e------------------------------------------------------------
B------------------------------------------------------------
G------------------------------------------------------------
D--0-1--0-1--0-1---------------------------------------------
A--0-1--0-1--0-1---------------------------------------------
D--0-1--0-1--0-1---------------------------------------------

Solo 2 (on the slides with the v, keep hitting the note fast)
e--10^-------------------------------------------------------
B------------------------------------------------------------
G--------9-10-12---10--9--9h10p9-----------------------------
D-----------------------------------11h12p11---11-12v/15v12-
A------------------------------------------------------------
D------------------------------------------------------------

(continued)
e------------------------------------------------------------
B------------------------------------------------------------
G-----10v/12v10------12v/14v12---10v/12---12v/14---12v---
D--11--------------11----------------------------------------
A------------------------------------------------------------
D------------------------------------------------------------

(continued)
e--12v/21---------------------------------------------------
B------------------------------------------------------------
G------------------------------------------------------------
D------------------------------------------------------------
A------------------------------------------------------------
D------------------------------------------------------------


Riff 1
Riff 2
Verse
Fill
Pre-Chorus
Chorus
Post-Chorus A, B
Verse
Pre-Chorus
Chorus
Post-Chorus A, B
Riff 1
Bridge 1, Solo 1
Bridge 2, Solo 2
Post-Chorus A, B
Pre-Chorus
Suggest correction
Give kudos to tab author, rate the tab!
1 2 3 4 5
comments
print report bad tab
guest
You may want to rate the tab now too:
select rating
Please do not post tabs as comments. Select "correction" instead!