Oops, an error
Loading. Please wait.

Outlived Tab

82 views 1 this week
no commentswrite comment
1 2 3 4 5
excellent!
x 1
add to favorites
launch autoscroll
font size
0
reset
how to read this tab
guitar tuner
Tab Pro tools
  • play this tab
  • loop segment
  • change instrument
  • show fretboard
  • metronome
Autoscroll
slow
fast
+/-
esc
set tempo
stop
Outlived by Flybanger
Guitarist: Brian Fratesi
Album: Knott Skull + Outlived EP
Dif.: 7
Tabbed by TWIGGy5

NOTE: It’s the same version of the song on each album it’s just the one on knott 
      skull is when they were known as JAR.
NOTE: Tune to Drop D
NOTE: * = strum 8x

Intro/Chorus
B|--------------3-----------------------3---3---
G|----------------2----------7----------2---2---
D|-2-----2-2-0-------0-0-5-----5--5-5-0---0-----
A|-2-----2-2-0-------0-0-5--------5-5-0---------
D|-2-----2-2-0-------0-0-5--------5-5-0---------

Intro/Chorus (cont.)
B|------------------3----------7------|
G|-----4--------------2----------7----|
D|-2-----2--2-2-0--------0-0-5-----5--|
A|-2--------2-2-0--------0-0-5--------|
D|-2--------2-2-0--------0-0-5--------|

Intro P2 (Gtr. 1)
G|------|-%-|-%-|-----7---------|
D|-1-XX-|-%-|-%-|-1-3-7---------|
A|-1-XX-|-%-|-%-|-1-3-5---------|
D|-1-XX-|-%-|-%-|-1-3-0---------|

Intro P2 (Gtr. 2) (w/ wah)
E|-1-X-X-|-%-|-%-|-%-|------------------------|
B|-1-X-X-|-%-|-%-|-%-|-3---7--7-5--5----------|
G|-------|-%-|-%-|-%-|-2-------------7--7-5~~-|
D|-------|-%-|-%-|-%-|-0----------------------|

Verse (Gtr. 2) (“I’m wrestling now……”)
G|-7------------------------------------|
D|-7------------------------------------|
A|-5------------------------------------|
                >>>>>>>>>>> = fade out

Fill 1 (Gtr. 2) (“How long a wait…..”)
B|--7///--|
G|--5///--|
D|--4///--|

Pre-Chorus (Gtr. 1) (“Forget the past…..”)
D|-0-3--0--3-3--0-3-0-X-X-X--0--3-0---3---6--------|
A|-0-3--0--3-3--0-3-0-X-X-X--0--3-0---3---6-----1*-|
D|-0-3--0--3-3--0-3-0-X-X-X--0--3-0---3---6-----1*-|
                                               PM

Pre-Chorus (Gtr. 2) (W. wah) (“Where’s his…..”)
B|--10----10----------|-%-|
G|-----10----10-10~~\-|-%-|

Fill 2 (Gtr. 1)
G|------|-%-|-%-|
D|-1-XX-|-%-|-%-|
A|-1-XX-|-%-|-%-|
D|-1-XX-|-%-|-%-|

Bridge (Gtr. 1)
E|----------------------------|-X-X--XX-|
B|----------------------------|-X-X--XX-|
G|----------------------------|-X-X--XX-|
D|-0-0-5--0--0-0-3--0--0-0-5--|-X-X--XX-|
A|-0-0-5--0--0-0-3--0--0-0-5--|---------|
D|-0-0-5--0--0-0-3--0--0-0-5--|---------|
  PM--|  PM-----|  PM-----|      ^ w/ wah

Bridge (Gtr. 1) (cont.)
E|----------------------------|-X-X--X-X-|
B|----------------------------|-X-X--X-X-|
G|----------------------------|-X-X--X-X-|
D|-0-0-5--0--0-0-3--0--0-0-5--|-X-X--X-X-|
A|-0-0-5--0--0-0-3--0--0-0-5--|----------|
D|-0-0-5--0--0-0-3--0--0-0-5--|----------|
  PM--|  PM-----|  pM-----|
                                 ^ w/ wah

Fill 3 (Gtr. 1)
D|-0-0-5--0--0-0-3--0--0-0-5--------------|
A|-0-0-5--0--0-0-3--0--0-0-5--------------|
D|-0-0-5--0--0-0-3--0--0-0-5--------------|
  PM--|  PM-----|  pM-----|^ let ring

Fill 4 (Gtr. 2) (w/ wah)
Just rub your hands across the strings all over the fretboard

Fill 5 (Gtr. 1)
D|-1--XX-|-%-|-%-|-%-|
A|-1--XX-|-%-|-%-|-%-|
D|-1--XX-|-%-|-%-|-%-|
     PM-| That dampens the tone even more

Outro (Gtr. 1) (“I will outlive…….”)
D|-0--3--0--3-3--0--3--0--|-%-|-%-|-%-|
A|-0--3--0--3-3--0--3--0--|-%-|-%-|-%-|
D|-0--3--0--3-3--0--3--0--|-%-|-%-|-%-|

Outro (Gtr. 2) (w/ wah)
B|-6--6--6--|-%-|-----|
G|-5--5--5--|-%-|-----|
D|----------|-%-|-5\--|

Song Structure: -
Intro
Intro P2 (Gtr. 1)/Intro P2 (Gtr. 2)
Verse (Gtr. 2)
Verse Bass (“So many times…….”)
Fill 1 (Gtr. 2)
Pre-Chorus (Gtr. 1)
Pre-Chorus (Gtr. 1)/Pre-Chorus (Gtr. 2)
Chorus (“Stand….”)
Intro P2 (Gtr. 1)/Intro P2 (Gtr. 2)
Verse (Gtr. 2) (“Depressing……..”)
Verse Bass (“I piss…………….”)
Fill 1 (Gtr. 2) (“How long…….”)
Pre-Chorus (Gtr. 1)
Pre-Chorus (Gtr. 1)/Pre-Chorus (Gtr. 2)
Chorus
Fill 2 (Gtr. 1)
Bridge (Gtr. 1)
Fill 3 (Gtr. 1)/Fill 1 (Gtr. 2)
Pre-Chorus (Gtr. 1)
Pre-Chorus (Gtr. 1)/Pre-Chorus (Gtr. 2)
Chorus
Fill 2 (Gtr. 1)/Fill 4 (Gtr. 2)
Chorus
Fill 5 (Gtr. 1)
Outro (Gtr. 1)/Outro (Gtr. 2)

Alright there ya go. Have fun with it. I’m not to sure
about guitar cause of it’s mass amount of wah but I 
did the best I can. Enjoy, if you have any comments,
 corrections or suggestions email me at toxic345x@yahoo.ca 
or even you want to request a song.
===========Song: Outlived
Artist: Flybanger
Album: Outlived
As tabbed by Joe Muggah
joe_the_man3@hotmail.com

Dropped D

Chorus
e-----------------------------------------------------------
B---------3---------------3---3--------------3--------------
G-----------2-----7-------2---2-----4----------2------7-----
D--2--2-0-----0-5---5-5-0---0----2----2-2-0------0-5----5---
A--2--2-0-----0-5-----5-0--------2------2-0------0-5------5-
D--2--2-0-----0-5-----5-0--------2------2-0------0-5--------

Riff A (Guitar 1)
e-----------------------------------------------------------
B-----------------------------------------------------------
G----------------------------------7------------------------
D--1-x-x--1-x-x--1-x-x--1-x-x--1-3-7------------------------
A--1-x-x--1-x-x--1-x-x--1-x-x--1-3-5------------------------
D--1-x-x--1-x-x--1-x-x--1-x-x--1-3-0------------------------

Riff B (Guitar 2, with wah)
e--------------------------------------2---0-------------2--
B--6-x-x--6-x-x--6-x-x--6-x-x--6^--3-----------3---1v----3--
G--5-x-x--5-x-x--5-x-x--5-x-x--5^--2---------------------2--
D----------------------------------0---------------------0--
A-----------------------------------------------------------
D-----------------------------------------------------------

Fill     Pre-Chorus A (Guitar 1)
e-------|---------------------------------------------------
B---7/--|---------------------------------------------------
G---6/--|---------------------------------------------------
D---4/--|--0---3--0---3--3--0---3--0--x-x-x--0---3--0--3--6-
A-------|--0---3--0---3--3--0---3--0--x-x-x--0---3--0--3--6-
D-------|--0---3--0---3--3--0---3--0--x-x-x--0---3--0--3--6-
("Forget the past...")

(continued)
e-----------------------------------------------------------
B-----------------------------------------------------------
G-----------------------------------------------------------
D--1m-1m-1m-1m-1m-1m-1m-------------------------------------
A--1m-1m-1m-1m-1m-1m-1m-------------------------------------
D--1m-1m-1m-1m-1m-1m-1m-------------------------------------

Pre-Chorus B (Guitar 2)
e--10------10------------------10------10-------------------
B------10------10------------------10------10---------------
G-----------------------------------------------------------
D-----------------------------------------------------------
A-----------------------------------------------------------
D-----------------------------------------------------------

Bridge A (Guitar 1)
e-----------------------------------------------------------
B-----------------------------------------------------------
G-----------------------------------------------------------
D--0m-0m-5^--0m--0m-0m-3^--0m--0m-0m-5^---------------------
A--0m-0m-5^--0m--0m-0m-3^--0m--0m-0m-5^---------------------
D--0m-0m-5^--0m--0m-0m-3^--0m--0m-0m-5^---------------------

Bridge B (Guitar 2, muted wah)
e-----------------------------------------------------------
B-----------------------------------------------------------
G-----------------------------------------------------------
D------------------------------------------5-5-0--5-0-------
A-----------------------------------------------------------
D-----------------------------------------------------------

Outro A (Guitar 1)
e-----------------------------------------------------------
B-----------------------------------------------------------
G-----------------------------------------------------------
D--0---3--0---3--3--0---3--0------0---3--0---3--3--0---3--0-
A--0---3--0---3--3--0---3--0------0---3--0---3--3--0---3--0-
D--0---3--0---3--3--0---3--0------0---3--0---3--3--0---3--0-

Outro B (Guitar 2, with wah)
e-----------------------------------------------------------
B--6---6---6---6---6---6------------------------------------
G--5---5---5---5---5---5------------------------------------
D--------------------------5-------------------------------
A-----------------------------------------------------------
D-----------------------------------------------------------

Chorus
Riff A, B
Fill
Pre-Chorus A
Pre-Chorus A, B
Chorus
Riff A, B
Fill
Pre-Chorus A, B
Chorus
Bridge A, B
Fill
Pre-Chorus A
Pre-Chorus A, B
Chorus
Outro A, B


=


Outlived- Flybanger
CD: Outlived (EP)
Tabber: Mitchell (Mitchell_J@hotmail.com)
Tuning: Dropped D (DADGBe)
~ =hold note   ^ =bend

SEVERE ULTRA MEGA SWEET-ASS DIEHARD SONG we got here!!
Rhythm guitar has distortion. Lead guitar always has a wah pedal except for the
Intro/chorus, where it just has distortion.
This may not be perfect, but bear with me.
I'd like to include the vocals, but they're often slurred/screamed so I can't get 'em.

Intro/chorus: (played together)
e ----------------------------------|------------------------------------------------
B ----------------------------------|------------------------------------------------
G ----------------------------------|------9---9-------7---7-------7---7-------7-----
D -2~----2-0-0~----0-0-5~----5-0-0~-|(9)-9---9---(7)-7---7---(7)-7---7---(7)-7---7---
A -2~----2-0-0~----0-0-5~----5-0-0~-|-7-----------5-----------5-----------5--------7-
D -2~----2-0-0~----0-0-5~----5-0-0~-|----------------------------------------------

Pre-verse: (with wah pedal)
e ----------------------------------------
B -6-6-6-6-6-6-6---------7----------------
G ---------------7-7~-------9--7--5~--7~--
D ------------------------------------7~--
A ------------------------------------5~--
D ----------------------------------------

Verses have no guitar in 'em

Pre-chorus:
e -^-|-----------------------------------------------------------------------------
B -7-|-----------------------------------------------------------------------------
G ---|-----------------------------------------------------------------------------
D ---|-0-0-0-3-0-0-0-3-0--0-0-0-3-0--x-x--0-0-0-3-0--0-3-0-6-6-6-6-6-6-6--x-x-x-x--
A ---|-0-0-0-3-0-0-0-3-0--0-0-0-3-0--x-x--0-0-0-3-0--0-3-0-6-6-6-6-6-6-6--x-x-x-x--
D ---|-0-0-0-3-0-0-0-3-0--0-0-0-3-0--x-x--0-0-0-3-0--0-3-0-6-6-6-6-6-6-6--x-x-x-x--

Second half of the pre-chorus: (Remember--- TWO guitars!)
e ------------10----10-----------10----10-------------------------------------------
B ---------------10----10-----------10----10----------------------------------------
G ----------------------------------------------------------------------------------
D -0-0-0-3-0---x-x-x---0-0-0-3-0---x-x-x---0-0-0-3-0--0-3-0-6-6-6-6-6-6-6--x-x-x-x--
A -0-0-0-3-0---x-x-x---0-0-0-3-0---x-x-x---0-0-0-3-0--0-3-0-6-6-6-6-6-6-6--x-x-x-x--
D -0-0-0-3-0---x-x-x---0-0-0-3-0---x-x-x---0-0-0-3-0--0-3-0-6-6-6-6-6-6-6--x-x-x-x--

"I WILL OUTLIVE!!" part:
e -----------------------
B -----------------------
G -----------------------
D -0-0-0-3-0--0-0-0-5-5--
A -0-0-0-3-0--0-0-0-5-5--
D -0-0-0-3-0--0-0-0-5-5--


Instrumental part:
***'s represent where some sloppy wah pedal notes come in, but I dunno what they are.
Just go nuts. The open notes are palm muted.
e -------------------------------|-Last time-play this:---------
B --------------------------***--|------------------------------
G -------------------------------|--------------------------12~-
D -0-0-5----0-0-3----0-0-5--6-6--|-0-0-5----0-0-3----0-0-5--12~-
A -0-0-5--0-0-0-3--0-0-0-5--6-6--|-0-0-5--0-0-0-3--0-0-0-5--10~-
D -0-0-5----0-0-3----0-0-5--6-6--|-0-0-5----0-0-3----0-0-5------

Anything past this point are parts that are already above. Have lotsa fun!

Chords: D5: 000xxx   E5: 222xxx   F5: 333xxx   G5: 555xxx   G#5: 666xxx

Tab originally from: http://diehardtabs.tripod.com
comments
We did not receive enough feedback on this tab! Please rate:
print report bad tab
1 2 3 4 5
I want to post or [tab]
guest
You may want to rate the tab now too:
select rating
Please do not post tabs as comments. Select "correction" instead!