Oops, an error
Loading. Please wait.

Fear bass

44 views 1 this week
no commentswrite comment
1 2 3 4 5
3 more votes to show rating
add to favorites
×
Save as Personal and add changes to this tab that will be seen only by you. Learn more ›
×
You can save this tab as Personal to edit and correct it or add notes. All changes will be seen only by you. Learn more »
launch autoscroll
font size
0
reset
guitar tuner
edit
Autoscroll
slow
fast
+/-
esc
set tempo
stop
Author
Difficulty
-------------------------------------------------------------------------------
			     FlyKKiller - Fear
-------------------------------------------------------------------------------

Tabbed By : Lukasz Stasielowicz
e-mail: zajacmuseomaniak{at}gmail.com

Tuning: Standard

G|----|
D|----|
A|--22| Repeat all the time until...
E|44--|

(1:40-1:48)

G|-------------|
D|-------------|
A|4---7---4---7|
E|-------------|

Then return to this pattern

G|----|
D|----|
A|--22| play until....
E|44--|


(2:55-3:03)

G|-------------|
D|-------------|
A|4---7---4---7|
E|-------------|

After this you can either play short solo or pause for few seconds


G|13-13-13-15-15-15-15-15-15-16-16-15-16-18-18-18-16-16-16-15-15-15------------|
D|------------------------------------------------------------------15-15-15-15|
A|-----------------------------------------------------------------------------| 
E|-----------------------------------------------------------------------------| 

Play it either 2 times or only once and for the second time return then to the main motive: 

G|----|
D|----|
A|--22| Repeat until the end
E|44--|



Occasionally you can modify the main pattern throughout the song, especially every 4th repetition:

G|----|
D|----|
A|----|  
E|4422|

Summing up it would be like: 

G|----------------|
D|----------------|
A|--22--22--22----|  
E|44--44--44--4422|




tabbed by Lukasz Stasielowicz
If you have any questiones, commments etc. you can reach me via email: 
zajacmuseomaniak{at}gmail.com



| /  slide up
| \  slide down
| h  hammer-on
| p  pull-off
| ~  vibrato
| +  harmonic
| x  Mute note
===============================================================================

            
            
Suggest correction
Creating personal tab
Creating personal tab
You can edit any tab online and save it as your Personal.

You can edit, replace or remove any tab part or add personal notes – all changes will be seen only by you.

Personal tabs can be accessed anytime from any device, even offline.
Learn more »
Give kudos to tab author, rate the tab!
1 2 3 4 5
comments
print report bad tab
guest
You may want to rate the tab now too:
select rating
Wanna post a correction for this tab? Suggest correction