Oops, an error
Loading. Please wait.

Arise tab

version 2
version 2

Whole song

by Flyleaf
94 views 1 this week
no commentswrite comment
1 2 3 4 5
3 more votes to show rating
add to favorites
×
Save as Personal and add changes to this tab that will be seen only by you. Learn more ›
×
You can save this tab as Personal to edit and correct it or add notes. All changes will be seen only by you. Learn more »
launch autoscroll
font size
0
reset
how to read this tab
guitar tuner
edit
Autoscroll
slow
fast
+/-
esc
set tempo
stop
ARISE
by Flyleaf


tabbed by:    Dropdeee
tuning:       Drop-D (D A D G B E)
effects:      Clean, Overdrive & Flanger 
video:        https://www.youtube.com/watch?v=oOwb4cuE8lw



 [Verse]

e|----------10-------------|------------------------|
B|----8---------10--10h12--|----8--7----------------|
G|-------9-----------------|----------7-------------| x 4
D|-------------------------|-------------7--7h9-----|
A|-------------------------|--------------------7---| Final note is bass note.
D|-------------------------|------------------------| Fits, but is optional.


 [Pre-chorus]

e|----------------------------------------------------------------------------------------|
B|----------------------------------------------------------------------------------------|
G|--12-12-12-12-12-12-12-12--10-10-10-10-10-10-10\4-4-4-4-4-4-4-4--14-14-14-14-14--16-16--|
D|--10-10-10-10-10-10-10-10--9--9--9--9--9--9--9\-2-2-2-2-2-2-2-2--12-12-12-12-12--14-14--|
A|--10-10-10-10-10-10-10-10--9--9--9--9--9--9--9\-2-2-2-2-2-2-2-2--12-12-12-12-12--14-14--|
D|----------------------------------------------------------------------------------------|

e|------------------------------------------------------------------------------------------------------|
B|------------------------------------------------------------------------------------------------------|
G|--12-12-12-12-12-12-12-12--14-14-14-14-14-14-14-14--16-16-16-16-16-16-16-16--19-19-19-19-19-19-19-19--|
D|--10-10-10-10-10-10-10-10--12-12-12-12-12-12-12-12--14-14-14-14-14-14-14-14--17-17-17-17-17-17-17-17--|
A|--10-10-10-10-10-10-10-10--12-12-12-12-12-12-12-12--14-14-14-14-14-14-14-14--17-17-17-17-17-17-17-17--|
D|------------------------------------------------------------------------------------------------------|

e|----------------------------------------------------|
B|----------------------------------------------------|
G|--12-12-12-12-12-12-12-12--14-14-14-14-14-14-14-14--|
D|--10-10-10-10-10-10-10-10--12-12-12-12-12-12-12-12--|
A|--10-10-10-10-10-10-10-10--12-12-12-12-12-12-12-12--|
D|----------------------------------------------------|

  [Chorus]
 
e|---------------------------------------------------------------------|
B|---------------------------------------------------------------------|   
G|---------------------------------------------------------------------|   
D|--2--2-----2-2-2-2-2-2-2-2-2-2-2-2--0-0-0-0-0-0-0-0-0-0-0-0-0-0-0-0--|  Chorus rhythm
A|--2--2-----2-2-2-2-2-2-2-2-2-2-2-2--0-0-0-0-0-0-0-0-0-0-0-0-0-0-0-0--|   
D|--2--2-----2-2-2-2-2-2-2-2-2-2-2-2--0-0-0-0-0-0-0-0-0-0-0-0-0-0-0-0--|

e|---------------------------------------------------------------------|
B|---------------------------------------------------------------------|       
G|---------------------------------------------------------------------|   Play these two      
D|--7-7-7-7-7-7-7-7-7-7-7-7-7-7-7-7--5-5-5-5-5-5-5-5-5-5-5-5-5-5-5-5---|   sections twice.   
A|--7-7-7-7-7-7-7-7-7-7-7-7-7-7-7-7--5-5-5-5-5-5-5-5-5-5-5-5-5-5-5-5---|       
D|--7-7-7-7-7-7-7-7-7-7-7-7-7-7-7-7------------------------------------|
 

e|---------------------------|---------------------------|
B|---------------------------|---------------------------|
G|--14-12-12-11hbr-----------|------11hbr----------------| 
D|-----------------12-12-14--|------------14~~~-12-12h14-| Chorus lead.
A|---------------------------|---------------------------|
D|---------------------------|---------------------------|
                                                   
e|---------------------------------------------------------------------------------------------|
B|---------------------------------------------------------------------------------------------|
G|--14-14-14-14-14-14-14-14-14-14-14-14-14-14-14-14-14-14-14-14-14-14-14-14-14\11-11-11-11-11--|
D|--14-14-14-14-14-14-14-14-14-14-14-14-14-14-14-14-14-14-14-14-14-14-14-14-14\----------------|
A|---------------------------------------------------------------------------------------------|
D|---------------------------------------------------------------------------------------------|

e|-----------------------------|-------------------------|
B|-----------------------------|----11hbr----------------|
G|--14hbr-12-12-11hbr----------|----------14~~~-12-12h14-|
D|--------------------12-12-14-|-------------------------|
A|-----------------------------|-------------------------|
D|-----------------------------|-------------------------|
                                                         
e|-----------------------------------------------------------------------------------------------------|
B|-----------------------------------------------------------------------------------------------------|
G|--14-14-14-14-14-14-14-14-14-14-14-14-14-14-14-14-14-14-14-14-14-14-14-14-14\11-11-11-11-11----14hb--|
D|--14-14-14-14-14-14-14-14-14-14-14-14-14-14-14-14-14-14-14-14-14-14-14-14-14\------------------------|
A|-----------------------------------------------------------------------------------------------------|
D|-----------------------------------------------------------------------------------------------------|


 [Verse]

e|----------10-------------|------------------------|
B|----8---------10--10h12--|----8--7----------------|
G|-------9-----------------|----------7-------------| x 2
D|-------------------------|-------------7--7h9-----|
A|-------------------------|--------------------7---|
D|-------------------------|------------------------|

e|----------10-------------|------------------------|
B|----8---------10--10h12--|----8--7----------------|
G|-------9-----------------|----------7-------------| x 1
D|-------------------------|-------------7--7h9-----|
A|-------------------------|------------------------|
D|-------------------------|------------------------|

e|-------------------------|--7---------|-----------|
B|--8----------------------|--8---------|--10-------| alternatively, just
G|--7----------------------|--7---------|--7--------| the 7-9 can be played 
D|--9---7-9-----7-9---7-9--|--9---------|--7--------| instead of the chords
A|--10---------------------|------------|--7--------| throughout this part
D|--7----------------------|------------|-----------|

 
 [Pre-chorus]

e|----------------------------------------------------------------------------------------|
B|----------------------------------------------------------------------------------------|
G|--12-12-12-12-12-12-12-12--10-10-10-10-10-10-10\4-4-4-4-4-4-4-4--14-14-14-14-14--16-16--|
D|--10-10-10-10-10-10-10-10--9--9--9--9--9--9--9\-2-2-2-2-2-2-2-2--12-12-12-12-12--14-14--|
A|--10-10-10-10-10-10-10-10--9--9--9--9--9--9--9\-2-2-2-2-2-2-2-2--12-12-12-12-12--14-14--|
D|----------------------------------------------------------------------------------------|

e|------------------------------------------------------------------------------------------------------|
B|------------------------------------------------------------------------------------------------------|
G|--12-12-12-12-12-12-12-12--14-14-14-14-14-14-14-14--16-16-16-16-16-16-16-16--19-19-19-19-19-19-19-19--|
D|--10-10-10-10-10-10-10-10--12-12-12-12-12-12-12-12--14-14-14-14-14-14-14-14--17-17-17-17-17-17-17-17--|
A|--10-10-10-10-10-10-10-10--12-12-12-12-12-12-12-12--14-14-14-14-14-14-14-14--17-17-17-17-17-17-17-17--|
D|------------------------------------------------------------------------------------------------------|

e|----------------------------------------------------------------------------------------|
B|----------------------------------------------------------------------------------------|
G|--12-12-12-12-12-12-12-12--10-10-10-10-10-10-10\4-4-4-4-4-4-4-4--14-14-14-14-14--16-16--|
D|--10-10-10-10-10-10-10-10--9--9--9--9--9--9--9\-2-2-2-2-2-2-2-2--12-12-12-12-12--14-14--|
A|--10-10-10-10-10-10-10-10--9--9--9--9--9--9--9\-2-2-2-2-2-2-2-2--12-12-12-12-12--14-14--|
D|----------------------------------------------------------------------------------------|

e|------------------------------------------------------------------------------------------------------|
B|------------------------------------------------------------------------------------------------------|
G|--12-12-12-12-12-12-12-12--14-14-14-14-14-14-14-14--16-16-16-16-16-16-16-16--19-19-19-19-19-19-19-19--|
D|--10-10-10-10-10-10-10-10--12-12-12-12-12-12-12-12--14-14-14-14-14-14-14-14--17-17-17-17-17-17-17-17--|
A|--10-10-10-10-10-10-10-10--12-12-12-12-12-12-12-12--14-14-14-14-14-14-14-14--17-17-17-17-17-17-17-17--|
D|------------------------------------------------------------------------------------------------------|

e|----------------------------------------------------|
B|----------------------------------------------------|
G|--12-12-12-12-12-12-12-12--14-14-14-14-14-14-14-14--|
D|--10-10-10-10-10-10-10-10--12-12-12-12-12-12-12-12--|
A|--10-10-10-10-10-10-10-10--12-12-12-12-12-12-12-12--|
D|----------------------------------------------------|

 [Chorus]

e|---------------------------------------------------------------------|
B|---------------------------------------------------------------------|   
G|---------------------------------------------------------------------|   
D|--2--2-----2-2-2-2-2-2-2-2-2-2-2-2--0-0-0-0-0-0-0-0-0-0-0-0-0-0-0-0--|  Chorus rhythm
A|--2--2-----2-2-2-2-2-2-2-2-2-2-2-2--0-0-0-0-0-0-0-0-0-0-0-0-0-0-0-0--|   
D|--2--2-----2-2-2-2-2-2-2-2-2-2-2-2--0-0-0-0-0-0-0-0-0-0-0-0-0-0-0-0--|

e|---------------------------------------------------------------------|
B|---------------------------------------------------------------------|       
G|---------------------------------------------------------------------|   Play these two      
D|--7-7-7-7-7-7-7-7-7-7-7-7-7-7-7-7--5-5-5-5-5-5-5-5-5-5-5-5-5-5-5-5---|   sections twice.   
A|--7-7-7-7-7-7-7-7-7-7-7-7-7-7-7-7--5-5-5-5-5-5-5-5-5-5-5-5-5-5-5-5---|       
D|--7-7-7-7-7-7-7-7-7-7-7-7-7-7-7-7------------------------------------|

e|---------------------------|---------------------------|
B|---------------------------|---------------------------|
G|--14-12-12-11hbr-----------|------11hbr----------------| 
D|-----------------12-12-14--|------------14~~~-12-12h14-| Chorus lead.
A|---------------------------|---------------------------|
D|---------------------------|---------------------------|
                                                   
e|---------------------------------------------------------------------------------------------|
B|---------------------------------------------------------------------------------------------|
G|--14-14-14-14-14-14-14-14-14-14-14-14-14-14-14-14-14-14-14-14-14-14-14-14-14\11-11-11-11-11--|
D|--14-14-14-14-14-14-14-14-14-14-14-14-14-14-14-14-14-14-14-14-14-14-14-14-14\----------------|
A|---------------------------------------------------------------------------------------------|
D|---------------------------------------------------------------------------------------------|

e|-----------------------------|-------------------------|
B|-----------------------------|----11hbr----------------|
G|--14hbr-12-12-11hbr----------|----------14~~~-12-12h14-|
D|--------------------12-12-14-|-------------------------|
A|-----------------------------|-------------------------|
D|-----------------------------|-------------------------|
                                                         
e|-----------------------------------------------------------------------------------------------------|
B|-----------------------------------------------------------------------------------------------------|
G|--14-14-14-14-14-14-14-14-14-14-14-14-14-14-14-14-14-14-14-14-14-14-14-14-14\11-11-11-11-11----14hb--|
D|--14-14-14-14-14-14-14-14-14-14-14-14-14-14-14-14-14-14-14-14-14-14-14-14-14\------------------------|
A|-----------------------------------------------------------------------------------------------------|
D|-----------------------------------------------------------------------------------------------------|

 [Bridge]

e|----------------------------|----------------------------|
B|----------------------------|----------------------------|
G|----------------------------|----------------------------|
D|--5----5---5-5---5---5--5-5-|--2----2---2-2---2---2--2-2-|
A|--5----5---5-5---5---5--5-5-|--2----2---2-2---2---2--2-2-|
D|--5----5---5-5---5---5--5-5-|--2----2---2-2---2---2--2-2-|
    ^    v   v ^   v   v  ^ v    ^    v   v ^   v   v  ^ v  
e|--------------------------------------------------------------------------------------|
B|--------------------------------------------------------------------------------------|
G|--8-8-8-8-8-8-8-8--9-9-9-9-9-9-9-9--11-11-11-11-11-11-11-11-11-11-11-11-11-11--14-14--|
D|--------------------------------------------------------------------------------------|
A|--------------------------------------------------------------------------------------|
D|--------------------------------------------------------------------------------------|


 [Chorus]

e|---------------------------|---------------------------|
B|---------------------------|---------------------------|
G|--14-12-12-11hbr-----------|--12--11hbr----------------|
D|-----------------12-12-14--|------------14~~~-12-12h14-|
A|---------------------------|---------------------------|
D|---------------------------|---------------------------|
                                                           
e|-----------------------------------------------------------------------------|
B|-----------------------------------------------------------------------------|
G|--8-8-8-8-8-8-8-8--9-9-9-9-9-9-9-9--11-11-11-11-11-11-11-11-11-11-11-11-11\--|
D|-----------------------------------------------------------------------------|
A|-----------------------------------------------------------------------------|
D|-----------------------------------------------------------------------------|

e|---------------------------------|---------------------------|
B|---------------------------------|---------------------------|
G|--14-14-14-12-12-11hbr-----------|------11hbr----------------|
D|-----------------------12-12-14--|------------14~~~-12-12h14-|
A|---------------------------------|---------------------------|
D|---------------------------------|---------------------------|
                                                                 
e|---------------------------------------------------------------------------------------------|
B|---------------------------------------------------------------------------------------------|
G|--14-14-14-14-14-14-14-14-14-14-14-14-14-14-14-14-14-14-14-14-14-14-14-14-14\11-11-11-11-11--|
D|--14-14-14-14-14-14-14-14-14-14-14-14-14-14-14-14-14-14-14-14-14-14-14-14-14\----------------|
A|---------------------------------------------------------------------------------------------|
D|---------------------------------------------------------------------------------------------|

e|-----------------------------|-------------------------|
B|-----------------------------|-------------------------|
G|--14hbr-12-12-11hbr----------|----11hbr----------------|
D|--------------------12-12-14-|----------14~~~-12-12h14-|
A|-----------------------------|-------------------------|
D|-----------------------------|-------------------------|
                                                         
e|---------------------------------------------------------------------------------------------|
B|---------------------------------------------------------------------------------------------|
G|--14-14-14-14-14-14-14-14-14-14-14-14-14-14-14-14-14-14-14-14-14-14-14-14-14\11-11-11-11-11--|
D|--14-14-14-14-14-14-14-14-14-14-14-14-14-14-14-14-14-14-14-14-14-14-14-14-14\----------------|
A|---------------------------------------------------------------------------------------------|
D|---------------------------------------------------------------------------------------------|

e|---------------------------------|---------------------------|
B|---------------------------------|---------------------------|
G|--14-14-14-12-12-11hbr-----------|------11hbr----------------|
D|-----------------------12-12-14--|------------14~~~-12-12h14-|
A|---------------------------------|---------------------------|
D|---------------------------------|---------------------------|

e|---------------------------------------------------------------------------------------------|
B|---------------------------------------------------------------------------------------------|
G|--14-14-14-14-14-14-14-14-14-14-14-14-14-14-14-14-14-14-14-14-14-14-14-14-14\11-11-11-11-11--|
D|--14-14-14-14-14-14-14-14-14-14-14-14-14-14-14-14-14-14-14-14-14-14-14-14-14\----------------|
A|---------------------------------------------------------------------------------------------|
D|---------------------------------------------------------------------------------------------|

e|---------------------------------|---------------------------|
B|---------------------------------|---------------------------|
G|--14-14-14-12-12-11hbr-----------|------11hbr----------------|
D|-----------------------12-12-14--|------------14~~~-12-12h14-|
A|---------------------------------|---------------------------|
D|---------------------------------|---------------------------|

e|---------------------------------------------------------------------------------------------|
B|---------------------------------------------------------------------------------------------|
G|--14-14-14-14-14-14-14-14-14-14-14-14-14-14-14-14-14-14-14-14-14-14-14-14-14\11-11-11-11-11--|
D|--14-14-14-14-14-14-14-14-14-14-14-14-14-14-14-14-14-14-14-14-14-14-14-14-14\----------------|
A|---------------------------------------------------------------------------------------------|
D|---------------------------------------------------------------------------------------------|


 
 [Outro]

e|---------|
B|---------|
G|---------|
D|--2------| let ring
A|--2------|
D|--2------|




************************************

| h   Hammer-on
| b   Bend
| br  Bend release
| /   Slide up
| \   Slide down
| ~   Vibrato

************************************

            
            
Suggest correction
Creating personal tab
Creating personal tab
You can edit any tab online and save it as your Personal.

You can edit, replace or remove any tab part or add personal notes – all changes will be seen only by you.

Personal tabs can be accessed anytime from any device, even offline.
Learn more »
Give kudos to tab author, rate the tab!
1 2 3 4 5
comments
print report bad tab
guest
You may want to rate the tab now too:
select rating
Wanna post a correction for this tab? Suggest correction