Oops, an error
Loading. Please wait.

Broken Wings tab

version 1
version 1

Whole song

Interactive

by Flyleaf
41,347 views 27 this week
4 commentsread comments
1 2 3 4 5
x 13
add to favorites
×
Save as Personal and add changes to this tab that will be seen only by you. Learn more ›
×
You can save this tab as Personal to edit and correct it or add notes. All changes will be seen only by you. Learn more »
launch autoscroll
font size
0
reset
how to read this tab
guitar tuner
edit
Autoscroll
slow
fast
+/-
esc
set tempo
stop
Flyleaf
Broken Wings
Tabbed by: paramore_fans@yahoo.com

Tuning: Drop D both guitars

b - bend
h - hammer
p - pull off
* - harmonics
/ - slide up
\ - slide down
~ - let ring

Intro/Verses:

Guitar 1:
e|-----------------------------2~-----------|
B|-----------------------------3~-----------|
G|-------------------------1~--2~-----------|
D|-2~--4~--0~----------7~--2~--0~--------0*-|
A|-2~--4~--0~----------4~--2~--0~-----0*----|
D|-2~--4~--0~--7*--5*--4~--2~--0~--0*-------|
then
e|------------------------2~-|
B|----10~--3~-------------3~-|
G|-6~--9~--2~---------1~--2~-|
D|-7~--7~--0~-----7~--2~--0~-|
A|-4~--7~--0~-----4~--2~--0~-|
D|-4~--7~--0~-----4~--2~--0~-|

Guitar 2:
e|-------------------------12*--12*--------12---------------------12*-----------------|
B|---------9--9h10p9------------------9h10------10---9h10-10--10----------------------|
G|-6b----9--------------------------------------------------------------7b--6b--6h7p6-|
D|-------------------7-7*-------------------------------------------------------------|
A|------------------------------------------------------------------------------------|
D|------------------------------------------------------------------------------------|
then
e|-------------------7/9---12*--12*--------12-------------7/9---12*---------------------|
B|---------9--9h10p9------------------9h10------10---9h10-------------------------------|
G|-6b----9--------------------------------------------------------------7b--6b--6h7p6---|
D|------------------------------------------------------------------7*------------------|
A|------------------------------------------------------------------7*------------------|
D|------------------------------------------------------------------7*------------------|


Choruses:

Guitar 1:
e|---------------------------------------------------------|
B|-6-6---6-6-----------------------------------------------|
G|-7-7---7-7---1-1---1-1-----------------------------------|
D|-4-4---4-4---2-2---2-2---0-0-0-0-0-0-0-0-0-0-0-0-0-0-0-0-| (x2)
A|-4-4---4-4---2-2---2-2---0-0-0-0-0-0-0-0-0-0-0-0-0-0-0-0-|
D|-4-4---4-4---2-2---2-2---0-0-0-0-0-0-0-0-0-0-0-0-0-0-0-0-|

Guitar 2:
e|------------------------------------5-5-5-5-5-5-5-5-5-5-5-5-5-5-5-5-|
B|-----------------------------10b\9b-3-3-3-3-3-3-3-3-3-3-3-3-3-3-3-3-|
G|-----7b\6b---7b\6b---7b\6b----------2-2-2-2-2-2-2-2-2-2-2-2-2-2-2-2-|
D|------------------------------------0-0-0-0-0-0-0-0-0-0-0-0-0-0-0-0-|
A|--------------------------------------------------------------------|
D|--------------------------------------------------------------------|


Outro: 3:04

Guitar 1:
e|-----------------------------------------------------------------|
B|-7-7-7-7-7-7-7-7-5-5-5-5-5-5-5-5-3-3-3-3-3-3-3-3-3-3-3-3-3-3-3-3-|
G|-6-6-6-6-6-6-6-6-4-4-4-4-4-4-4-4-2-2-2-2-2-2-2-2-2-2-2-2-2-2-2-2-|
D|-4-4-4-4-4-4-4-4-2-2-2-2-2-2-2-2-0-0-0-0-0-0-0-0-0-0-0-0-0-0-0-0-| (x2)
A|-4-4-4-4-4-4-4-4-2-2-2-2-2-2-2-2-0-0-0-0-0-0-0-0-0-0-0-0-0-0-0-0-|
D|-4-4-4-4-4-4-4-4-2-2-2-2-2-2-2-2-0-0-0-0-0-0-0-0-0-0-0-0-0-0-0-0-|

Guitar 2:
e|----------------------------------------------------------------------------|
B|-------------------5/9-9-9-9-10-10-10-10------------------------------------|
G|-7/9-9-9-9-9-9-9-9-----------------------6/7-7-7-7-7-7-7-7-6/7\6/-9-9-9-9-9-|
D|----------------------------------------------------------------------------| (x2)
A|----------------------------------------------------------------------------|
D|----------------------------------------------------------------------------|

3:25
e|-----------------------------------------------------------------|
B|-7-7-7-7-7-7-7-7-5-5-5-5-5-5-5-5-3-3-3-3-3-3-3-3-3-3-3-3-3-3-3-3-|
G|-6-6-6-6-6-6-6-6-4-4-4-4-4-4-4-4-2-2-2-2-2-2-2-2-2-2-2-2-2-2-2-2-|
D|-4-4-4-4-4-4-4-4-2-2-2-2-2-2-2-2-0-0-0-0-0-0-0-0-0-0-0-0-0-0-0-0-|
A|-4-4-4-4-4-4-4-4-2-2-2-2-2-2-2-2-0-0-0-0-0-0-0-0-0-0-0-0-0-0-0-0-|
D|-4-4-4-4-4-4-4-4-2-2-2-2-2-2-2-2-0-0-0-0-0-0-0-0-0-0-0-0-0-0-0-0-|
then
e|------------------------------------|
B|------------------------------------|
G|-6-6-6-6-6-6-6-6-4-4-4-4-4-4-4-4-2~-|
D|-4-4-4-4-4-4-4-4-2-2-2-2-2-2-2-2-0~-|
A|-4-4-4-4-4-4-4-4-2-2-2-2-2-2-2-2-0~-|
D|-4-4-4-4-4-4-4-4-2-2-2-2-2-2-2-2-0~-|

Guitar 2:
e|------12------12--------------9*-------5*--------------------------------12*-|
B|-9h10----9h10----10p9-9h10-10-----------------------------------7-9h10p9-----|
G|---------------------------------9\7\6----7-7-7-7-7-7-7-7-9-9-9--------------|
D|-----------------------------------------------------------------------------|
A|-----------------------------------------------------------------------------|
D|-----------------------------------------------------------------------------|
then
e|------12------12--------------9*-------5*----|
B|-9h10----9h10----10p9-9h10-10----------------|
G|---------------------------------9\7\6----7~-|
D|---------------------------------------------|
A|---------------------------------------------|
D|---------------------------------------------|


______________________________________________________________________________________________

Lyrics

Chords used: Drop D only
E5  - 222xxx
F#5 - 444xxx
D   - 000xxx
A   - 777xxx


Intro: E5-F#5-D5--F#5-E5--|D5
       F#5-A5-D5--F#5-E5--|D5


Verse 1:
E5 F#5           D5
   Thank you for being such a friend to me
F#5     E5                D5
   Oh I pray a friend for life
F#5    A5            D5
   And suddenly ever told you how much you mean to me
F#5          E5             D5
   Oh you're mean to master me
E5     F#5              D5
   I'm Thinking all the time how to tell you what I feel
F#5    E5            D5
   I'm Contemplating phrases
F#5    A5         D5
   I'm gazing at eternity
F#5     E5            D5
   I am floating in serenity


Chorus 1:
    F#5  E5          D5
And I am so lost for words
    F#5  E5     D5
And I am so overwhelmed


Verse 2:
E5  F#5             D5
    Please don't go just yet
F#5          E5           D5
    Can you stay a moment please
F#5 A5             D5
    We can dance together
F#5 E5              D5
    We can dance forever


Chorus 2:
   F#5      E5     D5
Under your stars tonight
    F#5   E5          D5
And oh envied deep collide


Interlude: F#5-E5-D5 (x2)


Outro:
F#5
    I think you
                    E5
But don't dream too deep
                        D5
And please pass me some memories
F#5                             E5
    And when I fall you're underneath
                  D5
A thousand broken hearts
                             F#5-E5-D5
Carried by a thousand broken wings
                  F#5-E5-D5
A thousand broken wings

F#5-E5-D5----F#5-E5-D5(hold)

            
            
Suggest correction
Creating personal tab
Creating personal tab
You can edit any tab online and save it as your Personal.

You can edit, replace or remove any tab part or add personal notes – all changes will be seen only by you.

Personal tabs can be accessed anytime from any device, even offline.
Learn more »
comments
print report bad tab
4 comments total. Showing first comments.
+1 reply
Vikki Michaela 10 Oct 27, 2007 07:48 AM

I think your lyrics need checking love.

Thank you for being such a friend to me
Oh, I pray a friend for life
And have I ever told you how much you mean to me
Oh, you mean so much to me
I'm thinking all the time how to tell you what I feel
I'm contemplating phrases
I'm gazing at eternity
I am floating in serenity

And I am so lost for words
And I am so overwhelmed

Please don't go just yet
Can you stay a moment please
We can dance together
We can dance forever

Under your stars tonight
We'll live and breathe this dream

So close your eyes
But don't dream too deep
And please pass me some memories
And when I fall you're underneath
A thousand broken hearts
Carried by a thousand broken wings
A thousand broken wings


www.flyleafonline.com

:)

-1 reply
Jguitar1905 10 Feb 09, 2008 08:28 PM

if you play this along with the song ,you will see that the correct way to play the intro is like this:

|-----------------12--0-------------------------------|
|----9-9h10p9-------------9h10p9------------10p9------|
|6b7---------9--------------------7\9--7\9--------9---|
|-----------------------------------------------------|
|-----------------------------------------------------|
|-----------------------------------------------------|

|---------------------|
|-------10--9--10p9---|
|6-6h7--------------9-|
|---------------------|
|---------------------|
|---------------------|

0 reply
finalheaven 31 Jun 08, 2008 04:21 AM

*agrees with Jguitar1905*

the way your tab is set out looks "professional", hence the 5 stars.
not impressed, 2 from me.

guest
You may want to rate the tab now too:
select rating
Wanna post a correction for this tab? Suggest correction