Oops, an error
Loading. Please wait.
We have an official Cassie tab made by UG professional guitarists. Check out the tab »
×
by Flyleaf
1,483 views 3 this week
no commentswrite comment
1 2 3 4 5
3 more votes to show rating
add to favorites
×
Save as Personal and add changes to this tab that will be seen only by you. Learn more ›
×
You can save this tab as Personal to edit and correct it or add notes. All changes will be seen only by you. Learn more »
save as personal
new!
launch autoscroll
font size
0
reset
guitar tuner
Autoscroll
slow
fast
+/-
esc
set tempo
stop
Author
Difficulty
novice
This should be pretty close

Tuning-E A D G

(Lisen to the song for the rhythem

Intro/Verse

G-------------------------------|
D-------------------------------|        For the Intro play it about 3 times
A-------------------------------|        For the verse play it about 5 times
E-5-5-5-5-6-6-3-3-5-5-3-3-5-6-5-|        But on the 5th time stop when you
                                        Get to the 5th fret right after the
                                        3rd fret

Chorus

G-------------------------------------------------------------------------|
D-------------------------------------------------------------------------|
A-------------------------------------------------------------------------|
E-5-5-5-5-5-5-5-5-5-5-5-5-8-8-8-8-8-8-8-8-8-8-8-8-3-3-3-3-3-3-3-3-3-3-3-3-|

G-----------|
D-----------|
A-----------|
E-1-1-1-1-1-|

Ok, so, the song stars out you play the Intro/Verse a grand total of 8 times then you
the chorus. The you play the verse about 7 more times then I think you come to this bridge
below. Play that 2 times

Bridge Thingy

G---------------------------------------------------------------------|
D---------------------------------------------------------------------|
A---------8-8-7-7-5-5-5-5-5-5-5-5----------8-8-7-7-5-5-5-5-5-10-10-10-|
E-5-5-8-8--------------------------5-5-8-8----------------------------|

The after repeating that play

G-------------------------------|
D-------------------------------|
A-----------8888-7777-555555555-|
E-5555-8888---------------------|

Then all that you really need to play is the chorus until the end


Lisen to the song, it'll help cuz this is probably a little wrong but thats how I play it


later
Suggest correction
Give kudos to tab author, rate the tab!
1 2 3 4 5
comments
print report bad tab
guest
You may want to rate the tab now too:
select rating
Wanna post a correction for this tab? Suggest correction