Oops, an error
Loading. Please wait.
We have an official Cassie tab made by UG professional guitarists. Check out the tab »
×
by Flyleaf
6,567 views 1 this week
1 commentread comment
1 2 3 4 5
1 last vote to show rating
add to favorites
×
Save as Personal and add changes to this tab that will be seen only by you. Learn more ›
×
You can save this tab as Personal to edit and correct it or add notes. All changes will be seen only by you. Learn more »
launch autoscroll
font size
0
reset
how to read this tab
guitar tuner
edit
Autoscroll
slow
fast
+/-
esc
set tempo
stop
Author
This is my first tab, so tell me how i did. This is a fun song to play and its pretty simple.

Intro: x4
e(-------------------)
b(-------------------)
g(-------------------)
d(--7777885577558877-)
a(--7777885577558877-)
D(--7777885577558877-)

Verse 1:
e(------)           
b(------)           
g(------)           
d(--777-)           
a(--777-)           
D(------)           
  pm...  

e(------------)
b(------------)
g(------------)
d(--777777775-)
a(--777777775-)
D(--777777775-)
  pm.........

Chorus: x2
e(-----------------------------------------------------)
b(-----------------------------------------------------)
g(----------------5-555-555-55555----------------------)
d(7-777-777-77777-5-555-555-55555-5-555-555-55555-3-333)  
a(7-777-777-77777-3-333-333-33333-5-555-555-55555-3-333)
D(7-777-777-77777-----------------5-555-555-55555-3-333)

Intro: x2

Verse 2:
e(------------)
b(------------)
g(------------)
d(--777777775-)
a(--777777775-)
D(--777777775-)
  pm.........

Chorus: x2

Interlude: this part is much slower than it looks
e(-------------------------------------------------------------------)
b(--8/10-10-8/5-8/10---------8/10-10-8/10-8-8/10-10-8/5-8/10---------)
g(-------------------9-7h9-7---------------------------------9-7h9-7-)
d(-------------------------------------------------------------------)
a(-------------------------------------------------------------------)
D(-------------------------------------------------------------------)

e(----------------------------------------)
b(10-10-10-10-1010101010101010101010101010)
g(----------------------------------------)
d(----------------------------------------)
a(----------------------------------------)
D(----------------------------------------)

Ending Chorus:
e(--------------------------------------------------------)
b(--------------------------------------------------------)
g(----------------5-555-555-55555-------------------------)
d(7-777-777-77777-5-555-555-55555-5-555-555-55555-3-3-3-3-) 
a(7-777-777-77777-3-333-333-33333-5-555-555-55555-3-3-3-3-)
D(7-777-777-77777-----------------5-555-555-55555-3-3-3-3-)

e(-----------------------------------------------------)
b(-----------------------------------------------------)
g(----------------5-555-555-55555----------------------)
d(7-777-777-77777-5-555-555-55555-5-555-555-55555-3-333)  
a(7-777-777-77777-3-333-333-33333-5-555-555-55555-3-333)
D(7-777-777-77777-----------------5-555-555-55555-3-333)

e(-----------------------------------------------------)
b(-----------------------------------------------------)
g(----------------5-555-555-55555----------------------)
d(7-777-777-77777-5-555-555-55555-5-555-555-55555-33333)  
a(7-777-777-77777-3-333-333-33333-5-555-555-55555-33333)
D(7-777-777-77777-----------------5-555-555-55555-33333)

END

Thats it pretty simple but fun to play. 

            
            
Suggest correction
Creating personal tab
Creating personal tab
You can edit any tab online and save it as your Personal.

You can edit, replace or remove any tab part or add personal notes – all changes will be seen only by you.

Personal tabs can be accessed anytime from any device, even offline.
Learn more »
Give kudos to tab author, rate the tab!
1 2 3 4 5
comments
print report bad tab
1 comment total.
0 reply
sparkrocker99 10 Aug 11, 2007 06:27 PM

well i dont think it makes much sense although its just me...space out the chords

guest
You may want to rate the tab now too:
select rating
Wanna post a correction for this tab? Suggest correction