Oops, an error
Loading. Please wait.

Cassie Tab

version 4
version 4

Whole song

Interactive

31,850 views 15 this week
8 commentsread comments
1 2 3 4 5
x 17
add to favorites
launch autoscroll
font size
0
reset
how to read this tab
guitar tuner
Autoscroll
slow
fast
+/-
esc
set tempo
stop
Help us to improve Ultimate-Guitar.com Take our survey!
×
Author
Tuning
D A D G B E
I was tired of reading the wrong tabs to one of the most meaningful songs from flyleaf 
i tabbed it out the right  way!!
comment it if you see any problems

Intro: x4
e|-------------------|
b|-------------------|
g|-------------------|
d|--7777885577558877-|
a|--7777885577558877-|
D|--7777885577558877-|

Verse 1:
e|------|
b|------|
g|------|
d|--777-|
a|--777-|
D|------|
  pm...

e|------------|
b|------------|
g|------------|
d|--777777775-|
a|--777777775-|
D|--777777775-|
  pm.........

Chorus: x2
e|-----------------------------------------------------|
b|-----------------------------------------------------|
g|----------------5-555-555-55555----------------------|
d|7-777-777-77777-5-555-555-55555-5-555-555-55555-3-333|
a|7-777-777-77777-3-333-333-33333-5-555-555-55555-3-333|
D|7-777-777-77777-----------------5-555-555-55555-3-333|

Intro x2
e|-------------------|
b|-------------------|
g|-------------------|
d|--7777885577558877-|
a|--7777885577558877-|
D|--7777885577558877-|

Chorus: x2
e|-----------------------------------------------------|
b|-----------------------------------------------------|
g|----------------5-555-555-55555----------------------|
d|7-777-777-77777-5-555-555-55555-5-555-555-55555-3-333|
a|7-777-777-77777-3-333-333-33333-5-555-555-55555-3-333|
D|7-777-777-77777-----------------5-555-555-55555-3-333|

Intro x2
e|-------------------|
b|-------------------|
g|-------------------|
d|--7777885577558877-|
a|--7777885577558877-|
D|--7777885577558877-|

Interlude: this part is slow
e|-------------------------------------------------------------------|
b|--8/10-10-8/5-8/10---------8/10-10-8/10-8-8/10-10-8/5-8/10---------|
g|-------------------9-7h9-7---------------------------------9-7h9-7-|
d|-------------------------------------------------------------------|
a|-------------------------------------------------------------------|
D|-------------------------------------------------------------------|

e|----------------------------------------|
b|10-10-10-10-1010101010101010101010101010|
g|----------------------------------------|
d|----------------------------------------|
a|----------------------------------------|
D|----------------------------------------|

Ending Chorus:
e|--------------------------------------------------------|
b|--------------------------------------------------------|
g|----------------5-555-555-55555-------------------------|
d|7-777-777-77777-5-555-555-55555-5-555-555-55555-3-3-3-3-|
a|7-777-777-77777-3-333-333-33333-5-555-555-55555-3-3-3-3-|
D|7-777-777-77777-----------------5-555-555-55555-3-3-3-3-|

e|-----------------------------------------------------|
b|-----------------------------------------------------|
g|----------------5-555-555-55555----------------------|
d|7-777-777-77777-5-555-555-55555-5-555-555-55555-3-333|
a|7-777-777-77777-3-333-333-33333-5-555-555-55555-3-333|
D|7-777-777-77777-----------------5-555-555-55555-3-333|

e|-----------------------------------------------------|
b|-----------------------------------------------------|
g|----------------5-555-555-55555----------------------|
d|7-777-777-77777-5-555-555-55555-5-555-555-55555-33333|
a|7-777-777-77777-3-333-333-33333-5-555-555-55555-33333|
D|7-777-777-77777-----------------5-555-555-55555-33333|
Suggest correction
comments
print report bad tab
8 comments total. Showing first comments.
0 reply
Squier6 10 Jun 12, 2008 07:00 AM

I really like this tab. It all sounds perfect.

but on the interlude, I get really confused. do the slashes mean you simply slide to that fret? or do they mean that you slide to the fret, then pick the note?

0 reply
bass_girl_260 93 Aug 24, 2008 08:22 AM

Good tab but I think the intro is:
7777885577557877
7777885577557877
7777885577557877

0 reply
LolaBelgium 10 Sep 20, 2008 05:03 AM

Very good, think also the intro is more like:
7777885577557/877
7777885577557/877
7777885577557/877

guest
You may want to rate the tab now too:
select rating
Wanna post a correction for this tab? Suggest correction