Oops, an error
Loading. Please wait.
We have an official Cassie tab made by UG professional guitarists. Check out the tab »
×
by Flyleaf
7,652 views 1 this week
4 commentsread comments
1 2 3 4 5
x 3
add to favorites
×
Save as Personal and add changes to this tab that will be seen only by you. Learn more ›
×
You can save this tab as Personal to edit and correct it or add notes. All changes will be seen only by you. Learn more »
launch autoscroll
font size
0
reset
how to read this tab
guitar tuner
edit
Autoscroll
slow
fast
+/-
esc
set tempo
stop
this isnt the normal acoustic, this is the rolling stone version
tuning:drop d

intro
E|-------------------------------------------------------------------|
b|-------------------------------------------------------------------|
g|-------------------------------------------------------------------|
d|7777885577557877-7777885577557877----------------------------------|
a|7777885577557877-7777885577557877----------------------------------|
d|7777885577557877-7777885577557877-7777885577557877-7777885577557877|

verse
E|--------------------------------------------------------------------|
b|--------------------------------------------------------------------|
g|--------------------------------------------------------------------|
d|--------------------------------------------------------------------|
a|--------------------------------------------------------------------|
d|7777885577557877-7777885577557877-7777885577557877-7777885577557877-|

lacey:the question asked.......................................make it

E|----------------|
b|----------------|
g|----------------|
d|----------------|
a|----------------|
d|7777885577557877|

lacey:make it

chorus

e|-----------------------------------|x2\
B|10-10-10-13-13-13-8-8-8------------|x2|
G|9--9--9--12-12-12-7-7-7------------|x2|\thanks to "flyleafguitar" for this
D|7--7--7--10-10-10-5-5-5-333-xxx-xxx|x2|/bit
A|7--7--7--10-10-10-5-5-5-333-xxx-xxx|x2|
D|7--7--7--10-10-10-5-5-5-333-xxx-xxx|x2|

verse
chorus

bridge
E|------------------------------------|x6
b|----------10-10-9-9-7-7-7-7-7-7-7-7-|x6
g|----------10-10-9-9-7-7-7-7-7-7-7-7-|x6
d|7-7-10-10--8--8-7-7-5-5-5-5-5-5-5-5-|x6
a|7-7-10-10---------------------------|x6 

lacey:i will die.......................i

E|------------------------------------|x6
b|------------------------------------|x6
g|----------10-10-9-9-7-7-7-7-xxx-xxx-|x6
d|7-7-10-10-10-10-9-9-7-7-7-7-xxx-xxx-|x6
a|7-7-10-10-8--8--7-7-5-5-5-5-xxx-xxx-|x6
d|7-7-10-10---------------------------|x6
d|7-7-10-10---------------------------|x6

lacey:i-will-say--YEES!

chorus

            
            
Suggest correction
Creating personal tab
Creating personal tab
You can edit any tab online and save it as your Personal.

You can edit, replace or remove any tab part or add personal notes – all changes will be seen only by you.

Personal tabs can be accessed anytime from any device, even offline.
Learn more »
Give kudos to tab author, rate the tab!
1 2 3 4 5
comments
print report bad tab
4 comments total. Showing first comments.
0 reply
Flyleafguitar 20 Mar 18, 2010 10:21 AM

It's pretty good! I was really excited that someone tabbed out the Rolling Stone version because it's my favorite version of the song.
I think the chorus goes more like this:

e|-----------------------------------|x2
B|10-10-10-13-13-13-8-8-8------------|x2
G|9--9--9--12-12-12-7-7-7------------|x2
D|7--7--7--10-10-10-5-5-5-333-xxx-xxx|x2
A|7--7--7--10-10-10-5-5-5-333-xxx-xxx|x2
D|7--7--7--10-10-10-5-5-5-333-xxx-xxx|x2

0 reply
Flyleafguitar 20 Mar 18, 2010 10:22 AM

Otherwise, amazing job!!!!

0 reply
oibigears 323 Apr 09, 2010 03:10 PM

okay thx, it probably is....i was only just starting out when i worte this.....ill put it in ma tab ;D

guest
You may want to rate the tab now too:
select rating
Wanna post a correction for this tab? Suggest correction