Oops, an error
Loading. Please wait.

Fire Fire Tab

version 1
version 1

Whole song

Interactive

Video

10,532 views 9 this week
2 commentsread comments
1 2 3 4 5
x 3
add to favorites
launch autoscroll
font size
0
reset
how to read this tab
guitar tuner
Autoscroll
slow
fast
+/-
esc
set tempo
stop
Help us to improve Ultimate-Guitar.com Take our survey!
×
Author
Difficulty
Tuning
novice
D A D G B E
-------------------------------------------------------------------------------
                             “Fire Fire” by Flyleaf
Track one off of New Horizons
-------------------------------------------------------------------------------
Tabbed by: Michelle

I’m not 100% this is correct, it’s just what I got from listening to it by ear, and I’m
not the best at that. I think it fits well, I know some parts aren’t right, especially
the verses, but I will try to listen and fix it, and hopefully ask Sameer or Jared on 
twitter for the correct tabs. Until then, enjoy.

Tuning: Drop D


Intro:
e|------------------------------------------------------------------------|
B|------------------------------------------------------------------------|
G|-4-4-4-4-5-5-0-0-0-0-0-0-0-0-4-4-4-4-0-0-0-0-0-0-0-0-0-0----------------|
D|--5-5-5-5-5-5-5-5-5-5-5-5-5-5-5-5-5-5-4-4-5-5-5-5-5-5-5-5---------------|
A|------------------------------------------------------------------------|
D|------------------------------------------------------------------------|

  (Almost thought we’d made it home…)
e|------------------------------------------------------------------------|
B|------------------------------------------------------------------------|
G|-4-4-4-4-5-5-0-0-0-0-0-0-0-0-4-4-4-4-0-0-0-0-0-0-0-0--------------------|
D|--5-5-5-5-5-5-5-5-5-5-5-5-5-5-5-5-5-5-4-4-5-5-5-5-5-5-------------------|
A|------------------------------------------------------------------------|
D|------------------------------------------------------------------------|

e|------------------------------------------------------------------------|
B|------------------------------------------------------------------------|
G|--------0-0-0-0-0-0-0-0-------------------------------------------------|
D|-4-4-4-5-5-5-5-5-5-5-5--------------------------------------------------|
A|------------------------------------------------------------------------|
D|------------------------------------------------------------------------|

  (That’s enough now dry your tears…)
e|------------------------------------------------------------------------|
B|------------------------------------------------------------------------|
G|-4-4-4-4-5-5-0-0-0-0-0-0-0-0-4-4-4-4-0-0-0-0-0-0-0-0-0-0----------------|
D|--5-5-5-5-5-5-5-5-5-5-5-5-5-5-5-5-5-5-4-4-5-5-5-5-5-5-5-5---------------|
A|------------------------------------------------------------------------|
D|------------------------------------------------------------------------|

Chorus: (Fire, fire, fire…)
e|------------------------------------------------------------------------|
B|------------------------------------------------------------------------|
G|------------------------------------------------------------------------|
D|-5-5-5-5-7-7-2-2-2-2-2-2-5-5-5-5-7-7-2-2-2-2-2-2-2-2--------------------|
A|-5-5-5-5-7-7-2-2-2-2-2-2-5-5-5-5-7-7-2-2-2-2-2-2-2-2--------------------|
D|-5-5-5-5-7-7-2-2-2-2-2-2-5-5-5-5-7-7-2-2-2-2-2-2-2-2--------------------|

Verse: (You’re ashamed of where you’re from…)(This part sounds either really distorted
or it’s bass)
e|------------------------------------------------------------------------|
B|---------------------------------------(5555555555555555)---------------|
G|------------------------------------------------------------------------|
D|------------------------------------------------------------------------|
A|------------------------------------------------------------------------|
D|-5-5-5-5-7-7-2-2-2-2-2-2-2-2-5-5-5-5-7-7-2-2-2-2-2-2-2-2----------------|
Pm * * * * * * * * * * * * * * * * * * * * * * * * * * * *

 (We can’t die because we’re young…)
e|------------------------------------------------------------------------|
B|---------------------------------------(5555555555555333)---------------|
G|------------------------------------------------------------------------|
D|------------------------------------------------------------------------|
A|------------------------------------------------------------------------|
D|-5-5-5-5-7-7-2-2-2-2-2-2-2-2-5-5-5-5-7-7-2-2-2-2-2-2-2-2----------------|

e|------------------------------------------------------------------------|
B|-(55555555555555555555)-------------------------------------------------|
G|------------------------------------------------------------------------|
D|------------------------------------------------------------------------|
A|------------------------------------------------------------------------|
D|--0-0-0-2-2-2-2-2-2-2-2-------------------------------------------------|


Chorus: (Fire, fire, fire…)
e|------------------------------------------------------------------------|
B|-------------------------------------(555555555555555)------------------|
G|------------------------------------------------------------------------|
D|-5-5-5-5-7-7-2-2-2-2-2-2-5-5-5-5-7-7-2-2-2-2-2-2-2-2--------------------|(X2)
A|-5-5-5-5-7-7-2-2-2-2-2-2-5-5-5-5-7-7-2-2-2-2-2-2-2-2--------------------|
D|-5-5-5-5-7-7-2-2-2-2-2-2-5-5-5-5-7-7-2-2-2-2-2-2-2-2--------------------|

Verse: (You’re ashamed of what you’ve done…)(not sure on the other guitar part yet)
e|------------------------------------------------------------------------|
B|------------------------------------------------------------------------|
G|------------------------------------------------------------------------|
D|-------------------------------------------------------(0-2-5-2-0-2)----|
A|------------------------------------------------------------------------|
D|-5-5-5-5-7-7-2-2-2-2-2-2-2-2-5-5-5-5-7-7-2-2-2-2-2-2-2-2----------------|
Pm * * * * * * * * * * * * * * * * * * * * * * * * * * * *

 (Trying to be something new…)
e|------------------------------------------------------------------------|
B|------------------------------------------------------------------------|
G|------------------------------------------------------------------------|
D|------------------------------------------------------------------------|
A|------------------------------------------------------------------------|
D|-5-5-5-5-7-7-2-2-2-2-2-2-2-2-5-5-5-5-7-7-2-2-2-2-2-2-2-2----------------|
Pm * * * * * * * * * * * * * * * * * * * * * * * * * * * *

e|------------------------------------------------------------------------|
B|------------------------------------------------------------------------|
G|------------------------------------------------------------------------|
D|(0-2-5-2-0-2)--------(0-2-5-2-0-2)--------------------------------------|
A|------------------------------------------------------------------------|
D|-0-0-0-2-2-2-2-2-2-2-2-2-2-2-2-2----------------------------------------|
Pm * * * * * * * * * * * * * * * *

Bridge: (What you confuse for Glory’s fire)
e|------------------------------------------------------------------------|
B|------------------------------------------------------------------------|
G|-4-4-4-4-5-5-0-0-0-0-0-0-0-0-4-4-4-4-0-0-0-0-0-0-0-0--------------------|
D|--5-5-5-5-5-5-5-5-5-5-5-5-5-5-5-5-5-5-4-4-5-5-5-5-5-5-------------------|(X4)
A|------------------------------------------------------------------------|
D|------------------------------------------------------------------------|

Chorus: (Oh, Send you’re rain…))
e|------------------------------------------------------------------------|
B|-------------------------------------(555555555555555)------------------|
G|------------------------------------------------------------------------|
D|-5-5-5-5-7-7-2-2-2-2-2-2-5-5-5-5-7-7-2-2-2-2-2-2-2-2--------------------|(X4)
A|-5-5-5-5-7-7-2-2-2-2-2-2-5-5-5-5-7-7-2-2-2-2-2-2-2-2--------------------|
D|-5-5-5-5-7-7-2-2-2-2-2-2-5-5-5-5-7-7-2-2-2-2-2-2-2-2--------------------|

 (You’ll find that you’ve nothing to prove.)
e|------------------------------------------------------------------------|
B|------------------------------------------------------------------------|
G|------------------------------------------------------------------------|
D|-5-5-5-5-7-7-2-2-2-2-2-2-5-5-5-5-7-7/2----------------------------------|
A|-5-5-5-5-7-7-2-2-2-2-2-2-5-5-5-5-7-7/2----------------------------------|
D|-5-5-5-5-7-7-2-2-2-2-2-2-5-5-5-5-7-7/2----------------------------------|


| /   slide up
| \   slide down
| h   hammer-on
| p   pull-off
| ~   vibrato
| +   harmonic
| x   Mute note
| b   Bend
| pb  Pre-bend
| br  Bend release
| pbr Pre-bend release
| brb Bend release bend

************************************
Suggest correction
Give kudos to tab author, rate the tab!
1 2 3 4 5
comments
print report bad tab
2 comments total.
0 reply
Rulerof52 426 Jan 15, 2015 08:17 PM

Lack of accuracy. the intro is not at all close to what it should be. listen to the song again a a a a a a a

0 reply
eyeliveonmusic 53 Feb 13, 2015 12:59 AM

I realize that it is wrong, but it's somewhat close to the sound, just not the right tabs. I do have a video tutorial of the right tabs and I will be fixing these eventually. https://www.youtube.com/watch?v=v1tqkNp0wQI This is my video tutorial which is correct

guest
You may want to rate the tab now too:
select rating
Wanna post a correction for this tab? Suggest correction