Oops, an error
Loading. Please wait.
We have an official Fully Alive tab made by UG professional guitarists. Check out the tab »
×

Fully Alive tab

by Flyleaf
59 views 1 this week
no commentswrite comment
1 2 3 4 5
3 more votes to show rating
add to favorites
×
Save as Personal and add changes to this tab that will be seen only by you. Learn more ›
×
You can save this tab as Personal to edit and correct it or add notes. All changes will be seen only by you. Learn more »
launch autoscroll
font size
0
reset
how to read this tab
guitar tuner
edit
Autoscroll
slow
fast
+/-
esc
set tempo
stop
About this tab version
Verses more accurate, solo is accurate, has both rhythm and solo of bridge. Most other versions have subtle mistakes, this one is triple checked and spot on. Was this info helpful? Yes No
FULLY ALIVE
by Flyleaf


tabbed by:   Dropdeee
tuning:      Drop-D  (D A D G B E)
effects:     Distortion
video:       https://www.youtube.com/watch?v=JkQWpcpiPJg


  - I have tabbed both the rhythm and solo parts of the Bridge so you can play either  -
  - This tab is the most accurate one posted on here, the verses and solo are spot on  -



 [Intro]

e|----------------------------|
B|----------------------------|
G|----------------------------|
D|----------------------------| x2
A|----------------------------|
D|--3--0--3--5---8--5--8--10--|

e|----------------------------------------------|
B|----------------------------------------------|
G|----------------------------------------------|
D|----------------------------------------------|
A|----------------------------------------------|
D|--3--0--3--5--8--5--8--10----8--5--8----5--0--|

e|----------------------------------------------|
B|----------------------------------------------|
G|----------------------------------------------|
D|--3--0--3--5--8--5--8--10----8--5--8----5--0--| x2
A|--3--0--3--5--8--5--8--10----8--5--8----5--0--|
D|--3--0--3--5--8--5--8--10----8--5--8----5--0--|


 [Verse 1]
                     PM------------------------------------------------|
e|-----------------------------------------------------------------------|
B|-----------------------------------------------------------------------|
G|-----------------------------------------------------------------------| x2
D|--3p0-------5p0--------------------------------------------------------|
A|--3p0-------5p0--------------------------------------------------------|
D|--3p0-------5p0------3--0--3--5--8--5--8--10--3--0--3--5--8—-5--8--10--|

                     PM------------------------------------------------|
e|-----------------------------------------------------------------------|
B|-----------------------------------------------------------------------|
G|-----------------------------------------------------------------------| 
D|--3p0-------8p0--------------------------------------------------------|
A|--3p0-------8p0--------------------------------------------------------|
D|--3p0-------8p0------3--0--3--5--8--5--8--10--3--0--3--5--8--5--8--10--|

                     PM------------------------------------------------|
e|-----------------------------------------------------------------------|
B|-----------------------------------------------------------------------|
G|-----------------------------------------------------------------------| 
D|--3p0-------5p0--------------------------------------------------------|
A|--3p0-------5p0--------------------------------------------------------|
D|--3p0-------5p0------3--0--3--5--8--5--8--10--3--0--3--5--8—-5--8--10--|


 [Chorus]

e|-------------------------------------------------------------------|
B|-------------------------------------------------------------------|
G|--7-7-7-7-7-7-7-7-7-7-7-7-10-10-10---------------------------------|
D|--7-7-7-7-7-7-7-7-7-7-7-7-10-10-10-5-5-5-8-8-8-8-8-8-8-0--3--3--5--| x2
A|--5-5-5-5-5-5-5-5-5-5-5-5--8--8--8-5-5-5-8-8-8-8-8-8-8-0--3--3--5--|
D|--0-0-0-0-0-0-0-0-0-0-0-0----------5-5-5-8-8-8-8-8-8-8-0--3--3--5--|
                      

 [Verse 2]
                     PM-----------------------|
e|----------------------------------------------|
B|----------------------------------------------|
G|----------------------------------------------| 
D|--3p0-------5p0-------------------------------| x2
A|--3p0-------5p0-------------------------------|
D|--3p0-------5p0------3--0--3--5--8--5--8--10--|

                     PM-----------------------|
e|----------------------------------------------|
B|----------------------------------------------|
G|----------------------------------------------| 
D|--3p0-------8p0-------------------------------|
A|--3p0-------8p0-------------------------------|
D|--3p0-------8p0------3--0--3--5--8--5--8--10--|

                     PM-------------------------------------|
e|----------------------------------------------------------------|
B|----------------------------------------------------------------|
G|----------------------------------------------------------------| 
D|--3p0-------5p0-------------------------------------------------|
A|--3p0-------5p0---------------------------------------------3---|
D|--3p0-------5p0------3--0--3--5--8--5--8--10---8--5--8---0--3---|


 [Chorus]

e|-------------------------------------------------------------------|
B|-------------------------------------------------------------------|
G|--7-7-7-7-7-7-7-7-7-7-7-7-10-10-10---------------------------------|
D|--7-7-7-7-7-7-7-7-7-7-7-7-10-10-10-5-5-5-8-8-8-8-8-8-8-0--3--3--5--| 
A|--5-5-5-5-5-5-5-5-5-5-5-5--8--8--8-5-5-5-8-8-8-8-8-8-8-0--3--3--5--|
D|--0-0-0-0-0-0-0-0-0-0-0-0----------5-5-5-8-8-8-8-8-8-8-0--3--3--5--|

e|-------------------------------------------------------------------|
B|-------------------------------------------------------------------|
G|--7-7-7-7-7-7-7-7-7-7-7-7-10-10-10---------------------------------|
D|--7-7-7-7-7-7-7-7-7-7-7-7-10-10-10-5-5-5-8-8-8-8-8-8-8-0--3--3--0--| 
A|--5-5-5-5-5-5-5-5-5-5-5-5--8--8--8-5-5-5-8-8-8-8-8-8-8-0--3--3--0--|
D|--0-0-0-0-0-0-0-0-0-0-0-0----------5-5-5-8-8-8-8-8-8-8-0--3--3--0--|

e|-------------------------------------------------------------------|
B|-------------------------------------------------------------------|
G|--7-7-7-7-7-7-7-7-7-7-7-7-10-10-10---------------------------------|
D|--7-7-7-7-7-7-7-7-7-7-7-7-10-10-10-5-5-5-8-8-8-8-8-8-8-0--3--3--5--| 
A|--5-5-5-5-5-5-5-5-5-5-5-5--8--8--8-5-5-5-8-8-8-8-8-8-8-0--3--3--5--|
D|--0-0-0-0-0-0-0-0-0-0-0-0----------5-5-5-8-8-8-8-8-8-8-0--3--3--5--|

e|-------------------------------------------------------------------|
B|-------------------------------------------------------------------|
G|--7-7-7-7-7-7-7-7-7-7-7-7-10-10-10---------------------------------|
D|--7-7-7-7-7-7-7-7-7-7-7-7-10-10-10-5-5-5-8-8-8-8-8-8-8-0--3--3--0--| 
A|--5-5-5-5-5-5-5-5-5-5-5-5--8--8--8-5-5-5-8-8-8-8-8-8-8-0--3--3--0--|
D|--0-0-0-0-0-0-0-0-0-0-0-0----------5-5-5-8-8-8-8-8-8-8-0--3--3--0--|



 [Bridge - Rhythm]
  
        PM-------------------------------------------------|
e|---------------------------------------------------------------------------|
B|---------------------------------------------------------------------------| 
G|---------------------------------------------------------------------------|
D|------------------------------------------------------------5-5-5-5-5-5-5--|
A|--3/5---5-5-5-5-5-5--8-8-8-8-8-8-8--0--3-3-3-3-3-3-3-3-3-3--3-3-3-3-3-3-3--|
D|--3/5---5-5-5-5-5-5--8-8-8-8-8-8-8--0--3-3-3-3-3-3-3-3-3-3--3-3-3-3-3-3-3--|

    PM-----------------------------------------------------|
e|---------------------------------------------------------------------------|
B|---------------------------------------------------------------------------| 
G|---------------------------------------------------------------------------|
D|------------------------------------------------------------5-5-5-5-5-5-5--| x2
A|----5-5-5-5-5-5-5-5--8-8-8-8-8-8-8--0--3-3-3-3-3-3-3-3-3-3--3-3-3-3-3-3-3--|
D|----5-5-5-5-5-5-5-5--8-8-8-8-8-8-8--0--3-3-3-3-3-3-3-3-3-3--3-3-3-3-3-3-3--|
-
    PM---------------------------------|
e|-----------------------------------------------------------------------------------------|
B|-----------------------------------------------------------------------------------------| 
G|---------------------------------------10-10-10-10-10-10-10-10-10--14-14-14-14-14-14-14--|
D|---------------------------------------10-10-10-10-10-10-10-10-10--14-14-14-14-14-14-14--|
A|----5-5-5-5-5-5-5-5--8-8-8-8-8-8-8--0--8--8--8--8--8--8--8--8--8---12-12-12-12-12-12-12--|
D|----5-5-5-5-5-5-5-5--8-8-8-8-8-8-8--0----------------------------------------------------|



 [Bridge - Solo]

e|--------------------------------------------------------3-3-3-3------------|
B|---------------------------------------------------------------h6----------|
G|-------------------------------5-5-5-5/7--7-7-7---7-7-7--------------------|
D|-----------5-5-5-5--3-3-3-3-3----------------------------------------------|
A|--5-5-5-5------------------------------------------------------------------|
D|---------------------------------------------------------------------------|

  
e|--6-6-6--------------------------------------------------------------------|
B|-------h8--8-8-8---8-8-----------------------------------------------------|
G|-------------------------8-8---------------5/7--7\5------5-5-5-5-5-5-5-5---| 
D|---------------------------------8-8----------------8----------------------| 
A|-----------------------------8-8-----8-8-----------------------------------|
D|---------------------------------------------------------------------------|
                          [-- harmonics --]

e|-------------------------------------------------8-8-8-8-6-6-6-6-----------|
B|------------------------3--6------------------------------------h8--8--8--8|
G|------------------------------5--5/7--7--7--7--7---------------------------|
D|-----------5-5-5-5--3-3----------------------------------------------------|
A|--5-5-5-5------------------------------------------------------------------|
D|---------------------------------------------------------------------------|

  
e|---------------------------------------------------------------------------|
B|---------------------------------------------------------------------------|
G|--8-8---------------5/7--7\5------5-5-5-5-5-5-5-5--------------------------| 
D|----------8-8----------------8---------------------------------------------| 
A|------8-8-----8-8----------------------------------------------------------|
D|---------------------------------------------------------------------------|
   [-- harmonics --]



 [Chorus]

e|---------------------------------------------------------------------------|
B|---------------------------------------------------------------------------|
G|--------------------5-5-5-5-5-5-5-5----------------------------------------|
D|--3-3-3-3-3-3-3-3---5-5-5-5-5-5-5-5---8-8-8-8-8-8-8-8-8-8-8-8-8-8-8---0----| x4
A|--3-3-3-3-3-3-3-3---3-3-3-3-3-3-3-3---8-8-8-8-8-8-8-8-8-8-8-8-8-8-8---0----|
D|--3-3-3-3-3-3-3-3---------------------8-8-8-8-8-8-8-8-8-8-8-8-8-8-8---0----|


 [Outro]

e|----------------------------------------------|
B|----------------------------------------------|
G|----------------------------------------------|
D|--3--0--3--5--8--5--8--10----8--5--8----5--0--| 
A|--3--0--3--5--8--5--8--10----8--5--8----5--0--|
D|--3--0--3--5--8--5--8--10----8--5--8----5--0--|






************************************


| h   Hammer-on
| p   Pull-off
| /   Slide up
| \   Slide down
| ~   Vibrato
| PM  Palm mute


************************************

            
            
Suggest correction
Creating personal tab
Creating personal tab
You can edit any tab online and save it as your Personal.

You can edit, replace or remove any tab part or add personal notes – all changes will be seen only by you.

Personal tabs can be accessed anytime from any device, even offline.
Learn more »
Give kudos to tab author, rate the tab!
1 2 3 4 5
comments
print report bad tab
guest
You may want to rate the tab now too:
select rating
Wanna post a correction for this tab? Suggest correction