Oops, an error
Loading. Please wait.
We have an official Fully Alive tab made by UG professional guitarists. Check out the tab »
×
by Flyleaf
2,916 views 1 this week
5 commentsread comments
1 2 3 4 5
x 5
add to favorites
×
Save as Personal and add changes to this tab that will be seen only by you. Learn more ›
×
You can save this tab as Personal to edit and correct it or add notes. All changes will be seen only by you. Learn more »
launch autoscroll
font size
0
reset
guitar tuner
edit
Autoscroll
slow
fast
+/-
esc
set tempo
stop
Author
This tab is as accurate as I can get it. Comment me on this. Give it a good rating.

 Intro/Bridge
G) -------0-3-0-3-5-------0-3-0-3-5-------0-3-0-5-3-0---------)
D) -3-0-3-----------3-0-3-----------3-0-3-------------3-3-----)
A) -----------------------------------------------------------)
E) -----------------------------------------------------------)

 Verse sec.1  Verse sec.2 Verse sec.3  Verse sec.4
G)-----------/-----------/-22---33---/-------------)
D)-33---55--/-33---55---/-----------/-33---55------)
A)-----------/-----------/-----------/-------------)
E)-----------/-----------/-----------/-------------)

 Verse Fill
G)-------0-3-0-3-5-)
D)-3-0-3-----------)
A)-----------------)
E)-----------------)

 Chorus
G)------------------------------33333333----)
D)-00000000-33333333-55555555---------------)
A)------------------------------------------)
E)------------------------------------------)

 Order
Intro 1x (when drums come in)
Verse sec.1
Verse Fill 2x
Verse sec.2
Verse Fill 2x
Verse sec.3
Verse Fill 2x
Verse sec.4
Verse Fill 2x
Chorus 2x
Verse sec.1
Verse Fill 1x
Verse sec.2
Verse Fill 1x
Verse sec.3
Verse Fill 1x
Verse sec.4
Verse Fill 2x
Chorus 2x
Bridge 4x
Chorus 2x
Play the last part of the Intro 1x
End

            
            
Suggest correction
Creating personal tab
Creating personal tab
You can edit any tab online and save it as your Personal.

You can edit, replace or remove any tab part or add personal notes – all changes will be seen only by you.

Personal tabs can be accessed anytime from any device, even offline.
Learn more »
comments
print report bad tab
5 comments total. Showing first comments.
+1 reply
JFreakM71 62 Dec 09, 2006 08:59 AM

this tab is wayyyyyyyyy off

0 reply
AtreyuHxCKid666 31 Dec 28, 2006 05:09 PM

this is how i play it.... there other bass tab just falt out sucks.... good job!

-1 reply
disca-limer8 75 Jan 01, 2007 11:26 AM

Thanks Atreyu. It took me a few days to figure it out. I'm glad you like it.

guest
You may want to rate the tab now too:
select rating
Wanna post a correction for this tab? Suggest correction