Oops, an error
Loading. Please wait.
We have an official Fully Alive tab made by UG professional guitarists. Check out the tab »
×

Fully Alive tab

by Flyleaf
6,494 views 1 this week
2 commentsread comments
1 2 3 4 5
x 3
add to favorites
×
Save as Personal and add changes to this tab that will be seen only by you. Learn more ›
×
You can save this tab as Personal to edit and correct it or add notes. All changes will be seen only by you. Learn more »
launch autoscroll
font size
0
reset
how to read this tab
guitar tuner
edit
Autoscroll
slow
fast
+/-
esc
set tempo
stop
Difficulty
Key
->-play until the notes have changed
-*-palm mute

      this is an awesome song by flyleaf.
whole song with distortion, i think. this is only my second tab.
Intro
D ----------------------------|
A ----------------------------|
F ----------------------------|
C ---------------0------------|  X 3
G -------0-3-0-3----3-0-3-0---|
D -3-0-3--------------------0-|


Verse One
D -----------------------------------------------------|
A -----------------------------------------------------|
F -----------------------------------------------------|
C ------------0--------------------0---------------0---|  X 4
G ----------3--------------0-3-0-3---------0-3-0-3-----|
D -3-0---------------3-0-3-----------3-0-3-------------|
                 p.m * * * * * * * * * * * * * * * *


Chorus
D -------------3>--------|
A -----1>--2>--2>--------|
F -----0>--2>--0>--------|
C -2>--2>--2>--0>--------|   X 2
G -2>--3>--0>--2>--------|
D -0>------2>--3>--------|


Verse Two
D ------------------------------------|
A ------------------------------------|
F ------------------------------------|
C ------------0--------------------0--|  X 3
G ----------3------------0-3-0-3-0----|
D -3-0-------------3-0-3--------------|
                p.m* * * * * * * * *


Verse Three
D -----------------------------------------|
A -----------------------------------------|
F -----------------------------------------|
C ------------0----------------0-----------|  X 1
G ----------3----------0-3-0-3---3-0-3-0---|
D -3-0-----------3-0-3-------------------0-|
             p.m * * * * * * * * * * * * *

Chorus
D -------------3>--------|
A -----1>--2>--2>--------|
F -----0>--2>--0>--------|
C -2>--2>--2>--0>--------|   X 2
G -2>--3>--0>--2>--------|
D -0>------2>--3>--------|


Solo
D -----3-5-10-8-5------------------|
A ---0-----------------------------|
F -2--------------7----------------|
C ------------------7-7-9-5-7------|
G ----------------5----------------|
D ---------------------------------|

D ---------------------------------|
A ---------------------------------|
F -----7-9-14-12-9-7---------------|
C -2-5---------------7-7-9-5-7-----|
G -----------------5---------------|
D ---------------------------------|  Solo X 2


Outro
D -------------------------|
A -------------------------|
F -----7>--5>--------------|
C -5>--7>--5>--------------|  X 4
G -5>--5>--3>--------------|
D -3>----------------------|


Intro
D ----------------------------|
A ----------------------------|
F ----------------------------|
C ---------------0------------|  X 1
G -------0-3-0-3----3-0-3-0---|
D -3-0-3--------------------0-|


thats it!!
tabbed my mikko
tabbed on september 3 2006 at 10:16
Suggest correction
Creating personal tab
Creating personal tab
You can edit any tab online and save it as your Personal.

You can edit, replace or remove any tab part or add personal notes – all changes will be seen only by you.

Personal tabs can be accessed anytime from any device, even offline.
Learn more »
Give kudos to tab author, rate the tab!
1 2 3 4 5
comments
print report bad tab
2 comments total.
0 reply
Reegs1010 123 Oct 12, 2006 11:47 AM

They play this song in Drop D, not having the whole guitar tuned down a step...atleast you took the time to get the solo part in there unlike the "good" tab...

0 reply
Emo JesusFreak 66 Apr 27, 2008 03:18 PM

Here are the lyrics to Fully Alive:
Telling Layla's story spoken
'Bout how all her bones are broken
Hammers fall on all the pieces
Two months in the cover creases

Fully alive
More than most
Ready to smile and love life
Fully alive and she knows
How to believe in futures

All my complaints shrink to nothing
I'm ashamed of all my somethings
She's glad for one day of comfort
Only because she has suffered

Fully alive
More than most
Ready to smile and love life
Fully alive and she knows
How to believe in futures

Fully alive
More than most
Ready to smile and love life
Fully alive and she knows
How to believe in futures

Fully alive
More than most
Ready to smile and love life
Fully alive and she knows
How to believe in futures

guest
Wanna post a correction for this tab? Suggest correction