Oops, an error
Loading. Please wait.
We have an official Fully Alive tab made by UG professional guitarists. Check out the tab »
×

Fully Alive tab

by Flyleaf
2,906 views 3 this week
2 commentsread comments
1 2 3 4 5
1 last vote to show rating
add to favorites
×
Save as Personal and add changes to this tab that will be seen only by you. Learn more ›
×
You can save this tab as Personal to edit and correct it or add notes. All changes will be seen only by you. Learn more »
launch autoscroll
font size
0
reset
how to read this tab
guitar tuner
edit
Autoscroll
slow
fast
+/-
esc
set tempo
stop
This is pretty good im not saing it's right though it sounds pretty good and i hope you
appreciate it i mean it is a good song and the guitar solo is a little funky but anyways enjoi....

-INTRO-
Rhythm w/heavy distortion
|---------------------------------------------------------------------|
|---------------------------------------------------------------------|
|---------------------------------------------------------------------|
|---------------------------------------------------------------------|
|--3-0-3-5------------3-0-3-5-----------3-0-3-5-8-5-8-10~8-5-8--5-0~--|
|--3-0-3-5------------3-0-3-5-----------3-0-3-5-8-5-8-10~8-5-8--5-0~--|
|                                                                     |
|                                                                     |
Lead w/wah                                                            |
|---------------------------------------------------------------------|
|---------------------------------------------------------------------|
|---------------------------------------------------------------------|
|---------------------------------------------------------------------|
|---------------------------------------------------------------------|
|-----------7/8/8/-10---------7/8/8-10--------------------------------|
power slide . .               . .


Rhythm w/heavy distortion
|--0-----------------------------|
|--0-----------------------------|
|--0-----------------------------|
|--0-----------------------------|
|--3-0-3-5-8-5-8-10~8-5-8--5-0~--|
|--3-0-3-5-8-5-8-10~8-5-8--5-0~--| x2
|PM. . . . . . .  . . . .  .     |
|                                |
Lead w/heavy distortion          |
|--------------------------------|
|--------------------------------|
|--------------------------------|
|--------------------------------|
|--3-0-3-5-8-5-8-10~8-5-8--5-0~--|
|--3-0-3-5-8-5-8-10~8-5-8--5-0~--| x2
|PM. . . . . . .  . . . .  .     |

-VERSE 1-
Rhythm
|-------------------------------------------------------------|
|-------------------------------------------------------------|
|-------------------------------------------------------------|
|-------------------------------------------------------------|
|--3-0---------5-0---------3-0-3-5-8-5-8-10-3-0-3-5-8-5-8-10--|
|--3-0---------5-0---------3-0-3-5-8-5-8-10-3-0-3-5-8-5-8-10--| x4
|PM                        . . . . . . .  . . . . . . . .  .                 |
                                                 |
|                                                             |
|                                                             |
Lead                                                          |
|-------------------------------------------------------------|
|-------------------------------------------------------------|
|-------------------------------------------------------------|
|-------------------------------------------------------------|
|--------------------------3-0-3-5-8-5-8-10-3-0-3-5-8-5-8-10--|
|--------------------------3-0-3-5-8-5-8-10-3-0-3-5-8-5-8-10--|
|PM                        . . . . . . .  . . . . . . . .  .  | x4


-CHORUS-
Rhythm
|--0--------------------------------------|
|--0--------------------------------------|
|--0--------------------------------------|
|--0--------------------------------------|
|--0-333333333336666663333/66666611111h4--|
|--0-111111111114444441111/66666611111h4--| x2
|                                         |
|                                         |
Lead                                      |
|--0--------------------------------------|
|--0--------------------------------------|
|--0--------------------------------------|
|--0--------------------------------------|
|--0-777777777778888887777/88888877777h8--|
|--0-555555555558888885555/88888855555h8--| x2


-VERSE 2-
Rhythm
|--------------------------------------------|
|--------------------------------------------|
|--------------------------------------------|
|--------------------------------------------|
|--3-0---------5-0---------3-0-3-5-8-5-8-10--|
|--3-0---------5-0---------3-0-3-5-8-5-8-10--| x3
|PM                        . . . . . . .  .  |                |
                 |
|                                            |
|                                            |
Lead                                         |
|--------------------------------------------|
|--------------------------------------------|
|--------------------------------------------|
|--------------------------------------------|
|--------------------------3-0-3-5-8-5-8-10--|
|--------------------------3-0-3-5-8-5-8-10--| x3
|PM                        . . . . . . .  .  |

Rhythm
|-------------------------------------------------------|
|-------------------------------------------------------|
|-------------------------------------------------------|
|-------------------------------------------------------|
|--3-0---------5-0---------3-0-3-5-8-5-8-10~8-5-8-5-0~--|
|--3-0---------5-0---------3-0-3-5-8-5-8-10~8-5-8-5-0~--|
|                          . . . . . . .  . . . . .     |
|                                                       |
Lead                                                    |
|-------------------------------------------------------|
|-------------------------------------------------------|
|-------------------------------------------------------|
|-------------------------------------------------------|
|--------------------------3-0-3-5-8-5-8-10~8-5-8-5-0~--|
|--------------------------3-0-3-5-8-5-8-10~8-5-8-5-0~--|


Rhythm
|--0--------------------------------------|
|--0--------------------------------------|
|--0--------------------------------------|
|--0--------------------------------------|
|--0-333333333336666663333/66666611111h4--|
|--0-111111111114444441111/66666611111h4--| x2
|                                         |
|                                         |
Lead                                      |
|--0--------------------------------------|
|--0--------------------------------------|
|--0--------------------------------------|
|--0--------------------------------------|
|--0-777777777778888887777/88888877777h8--|
|--0-555555555558888885555/88888855555h8--| x2


-SOLO-
Rhythm                                                                 s
|----------------------------------------------------------------------0--|
|-------------------------------------------------------------------------|
|-------------------------------------------------------------------------|
|-------------------------------------------------------------------------|
|-------------------------------------------------------------6-----------|
|-0~~~0-0-----------------------------------------------------6-----------|
|                                                                         |
|                                                                         |
Lead                                                                      |
|-------------------------------------------------------------------------|
|----------------------------------------------------------------------s--|
|------------------------------------12-12-12-12-10-10-10-10-----------0--|
|-0----------------9-9-9-10-10-10-10-------------------------12-12-12-12--|
|-5-5--5h7-5-5-5-5-------------------------------------------12-----------|
|------------------------------------------------------------10-----------|

Rhythm
|----------------------------------|
|----------------------------------|
|----------------------------------|
|-4-4-4-6666--------------4-4-4-6--|
|-4-4-4-6666--------------4-4-4-6--|
|-2-2-2-4444--------------2-2-2-4~-| x4
|                                  |
|                                  |
Lead                               |
|----------------------------------|
|----------------------------------|
|-------------------------------8--|
|-------------------------------8--|
|-12-12-10-10-------------12-10/8--|
|-------------12-12-10-10-------0--| x4
|                               s  |


-CHORUS-
Rhythm
|--0--------------------------------------|
|--0--------------------------------------|
|--0--------------------------------------|
|--0--------------------------------------|
|--0-333333333336666663333/66666611111h4--|
|--0-111111111114444441111/66666611111h4--| x4
|                                         |
|                                         |
Lead                                      |
|--0--------------------------------------|
|--0--------------------------------------|
|--0--------------------------------------|
|--0--------------------------------------|
|--0-777777777778888887777/88888877777h8--|
|--0-555555555558888885555/88888855555h8--| x4

-OUTRO-
|---------------------------------|
|---------------------------------|
|---------------------------------|
|---------------------------------|
|--3-0-3-5-8-5-8-10~8-5-8-5-0~x\--|
|--3-0-3-5-8-5-8-10~8-5-8-5-0~x\--|
|  . . . . . . .  . . . . .       |
|                                 |
Lead                              |
|---------------------------------|
|---------------------------------|
|---------------------------------|
|---------------------------------|
|--3-0-3-5-8-5-8-10~8-5-8-5-0~x\--|
|--3-0-3-5-8-5-8-10~8-5-8-5-0~x\--| THANKS FOR PLAYIN THIS !!!!


-END-

            
            
Suggest correction
Creating personal tab
Creating personal tab
You can edit any tab online and save it as your Personal.

You can edit, replace or remove any tab part or add personal notes – all changes will be seen only by you.

Personal tabs can be accessed anytime from any device, even offline.
Learn more »
Give kudos to tab author, rate the tab!
1 2 3 4 5
comments
print report bad tab
2 comments total.
0 reply
disca-limer8 75 Dec 04, 2006 08:54 AM

Yuck!

0 reply
Emo JesusFreak 66 Apr 27, 2008 03:20 PM

the lyrics to this song are:
Telling Layla's story spoken
'Bout how all her bones are broken
Hammers fall on all the pieces
Two months in the cover creases

Fully alive
More than most
Ready to smile and love life
Fully alive and she knows
How to believe in futures

All my complaints shrink to nothing
I'm ashamed of all my somethings
She's glad for one day of comfort
Only because she has suffered

Fully alive
More than most
Ready to smile and love life
Fully alive and she knows
How to believe in futures

Fully alive
More than most
Ready to smile and love life
Fully alive and she knows
How to believe in futures

Fully alive
More than most
Ready to smile and love life
Fully alive and she knows
How to believe in futures

guest
You may want to rate the tab now too:
select rating
Wanna post a correction for this tab? Suggest correction